Memory Tapes - Bicycle tab

Memory Tapes - Bicycle

e|-----------------------------------------------------------|
b|-8---------8-8---------8-8------------------8-----8-8------|
G|---10-9-7------10-9-7------10-9-7-2-3-5-3-2---9-7-----9-7--|
D|-----------------------------------------------------------|
A|-----------------------------------------------------------|
D|-----------------------------------------------------------|

e|-------18-18-16-14-13----------8-----8-----8-----8-----8-----8-----8-----|
b|-14-17----------------14-17-15---9-7---9-7---9-7---9-7---9-6---9-7---9-7-|
G|-------------------------------------------------------------------------|
D|-------------------------------------------------------------------------|
A|-------------------------------------------------------------------------|
D|-------------------------------------------------------------------------|

e|-------------12-----------------------------------------------------|
b|-14-14-13-14----14-13\-8-----8-----8-----8-----8--------------------|
G|-------------------------9-7---9-7---9-7---9-7---9-5-10-9-5-3-3-5---|
D|------------------------------------------------------------------5-|
A|--------------------------------------------------------------------|
D|--------------------------------------------------------------------|

e|----------------------------------------------------------15-15-13-12----|
b|-11-11-11-11-11-11-11-11-13-13-13-14-14-14-14-11-11-11-11-------------11-|
G|-------------------------------------------------------------------------|
D|-------------------------------------------------------------------------|
A|-------------------------------------------------------------------------|
D|-------------------------------------------------------------------------|

e|-------------------------------------------------------------------------|
b|-------------------11----11----------------------------------------------|
G|-12-12-12-12-12-12----12----12...----------------------------------------|
D|-------------------------------------------------------------------------|
A|-------------------------------------------------------------------------|
D|-------------------------------------------------------------------------|

This as an awesome solo that just sticks to your head! listen to the song and help me 
the tab, first time I tab and still learning. There are a few more slides on the solo...

\ = Slide down.
Tap to rate this tab
 
# A B C D E F G H I J K L M N O P Q R S T U V W X Y Z