Memory Tapes - Bicycle tab

Memory Tapes - Bicycle (Solo)
Standard tuning


e|-------------------------------------------|
b|-------------------------------------------|
G|-------------------------------------------|
D|-3-1-0---33-1-0---33-1-0---------0---------|
A|-------3-------3----------3--1-3---3-1-----|
E|-------------------------------------------|

e|------------------------------------|
b|------------------------------------|
G|----------------7--77-5-32-3-5-3----|
D|-3-1-0-/5-3-1-0---------------------|
A|------------------------------------|
E|------------------------------------|

e|-6--6--6--6--6----6--6--6868108-6---|
b|--6--6--6--6--6----6--6-------------|
G|---7--7--7--7---7---7--7------------|
D|------------------------------------|
A|------------------------------------|
E|------------------------------------|

e|-6--6--6--6--6-------------------------|
b|--6--6--6--6--6-----6-3------3---------|
G|---7--7--7--7---7--5----5--35--0-------|
D|---------------------------------------|
A|---------------------------------------|
E|---------------------------------------|

e|----------------------------------------------13-13----------|
b|----------------13-131315-151515-------------------16--15----|
G|-15151515151515------------------15-15151515------------15---|
D|-------------------------------------------------------------|
A|-------------------------------------------------------------|
E|-------------------------------------------------------------|


e|--------------------------------------------------------|
b|--------------------------------------------------------|
G|-12-1212121212-1415-12-14-------------------------------|
D|--------------------------15---121315-15-------12-------|
A|----------------------------------------13-1515--15-13--|
E|--------------------------------------------------------|


e|---------------------------------------------|
b|---------------------------------------------|
G|---------------------------------------------|
D|-----------12-----12-------15-15151312-------|
A|-------1315---1315--------------------13-----|
E|-15------------------13/15-------------------|


e|----------------------------------------------|
b|----------------------------------------------|
G|----------------------------------------------|
D|----------12-----12--121315-15-------12-------|
A|------1315---1315-------------13-1515--15-13--|
E|-15-------------------------------------------|


Tabbed by BanaN.
This is my first tab, so if there`s any problem with it let me know : d
bananeeek@gmail.com
Tap to rate this tab
 
# A B C D E F G H I J K L M N O P Q R S T U V W X Y Z