Song name
# A B C D E F G H I J K L M N O P Q R S T U V W X Y Z

Memoryhouse - Punctum tab

-----------------------------------------------------------------------
                         Punctum - Memoryhouse
-----------------------------------------------------------------------
Tabbed by: aussiejames101
E-mail: aussiejames101@aol.com
Link to band's website: http://www.memoryhou.se/

Tuning: Standard, Capo 2nd Fret

e|----------------|----------------|----------------|----------------|
B|----------3-----|--0-------0-----|--0-------3-----|--0-------3---3-|
G|--------------0-|------0-----2---|------0-------0-|------0---0---0-|
D|--------0---4---|----0---------0-|----2---0---4---|----0-----------|
A|----------------|--------3-------|3---------------|--------3---3---|
E|----------------|3---------------|----------------|3---------------|


e|----------------|----------------|----------------|----------------|
B|--3--03h-3------|--0-------0-----|--0-------3-----|--0-------------|
G|--0---0-------0-|------0-----2---|------0-------0-|------0---0---0-|
D|--------0---4---|----0---------0-|----2---0---4---|----0-----------|
A|3---3-----------|--------3-------|3---------------|--------3---3---|
E|----------------|3---------------|----------------|3---------------|

                                                                    x3
e|----------------|----------------| ----------------|----------------||
B|----------0-----|--0-------3-----|o--0-------0-----|--0-------3-----||
G|--0---0-------0-|------0-------0-| ------0-----2---|------0-------0-||
D|------------0---|----0---0---4---| ----0---------0-|----2---0---4---||
A|3---3---3-------|3---------------|o--------3-------|3---------------||
E|----------------|----------------| 3---------------|----------------||


e|----------------|----------------|----------------|----------------|
B|--0-------------|--------------0-|------0---3-----|--0-------0-----|
G|------0---0---0-|--0---0---------|--------------0-|--0-------0-----|
D|----0-----------|----------0-----|--0-----0---4---|----0---------0-|
A|--------3---3---|3---3---3---3---|3---3-----------|--------3-------|
E|3---------------|----------------|----------------|3---------------|

e|----------------|----------------|----------------|----------------|
B|--0-------3-----|--0-------3---3-|--3--03h-3------|--0-------0-----|
G|--0-------3-----|--0-------3---3-|--0---0-------0-|------0-----2---|
D|----2---0---4---|----0-----------|--------0---4---|----0---------0-|
A|3---------------|--------3---3---|3---3-----------|--------3-------|
E|----------------|3---------------|----------------|3---------------|

e|----------------|----------------|----------|
B|--0-------3-----|--0-------------|----------|
G|------0-------0-|------0---0---0-|--0---0---|
D|----2---0---4---|----0-----------|----------|
A|3---------------|--------3---3---|3---2---0-|
E|----------------|3---------------|----------|...

************************************

| h   hammer-on

************************************
Tap to rate this tab
# A B C D E F G H I J K L M N O P Q R S T U V W X Y Z