Song name
# A B C D E F G H I J K L M N O P Q R S T U V W X Y Z

Memphis May Fire - Youre Lucky Its Not 1692 tab

Memphis May Fire is an amazingly talented group, 
but if you're reading this your already know that. 
I didn't bother tabbing out the whole song, 
but I know the intro is what most people will have difficulty with.

Cheers:

Intro 3x

d#|----------------------------------------------------------------|
A#|----------------------------------------------------------------|
F#|----------------------------------------------------------------|
C#|---------------3p0----------------------------3h5p3-----6-5-3-0-|
G#|-------3p0-5p0-----3p0----------------3p0-5p0-------5p0---------|
C#|-//0-0-----------------5p0-6-5-3-0--0---------------------------|

|---------------------------------------------------------------|
|---------------------------------------------*10---*-----------|
|---------------------------------------------*13b14*-1st-time--|
|---------------3p0---------------------------------------------|
|-------3p0-5p0-----3p0-----------------------------------------|
|---0-0-----------------5p0-6-5-3-5-55553336--------------------|

If anyone is ambitious enough to write a full tab, feel free to use this, just mention me, thanks.
Tap to rate this tab
 
# A B C D E F G H I J K L M N O P Q R S T U V W X Y Z