Song name
# A B C D E F G H I J K L M N O P Q R S T U V W X Y Z

Memphis May Fire - Vices tab

hey, this is the lead tapping part in the chorus for vices.
I got it from this video http://www.youtube.com/watch?v=YRSwSg7dvWw
That's not me, I just took what he did and tabbed it out.
All tapped
l
V

D# -------------------------------------------------10/12p5--------------------------|
A# ----11/10p6---------------------------11/10p6-------------13p6--------------------|
F# --------------10/11p7---9p7----x3-------------------------------------------------|
C# ----------------------------------------------------------------------------------|
G# ----------------------------------------------------------------------------------|
C# ----------------------------------------------------------------------------------|

D# -----------------------------------12p5---12/13---13/15---15/17--17/18/17~--------|
A# --11/10p6-------------------------------------------------------------------------|
F# ---------------10/11p7----9p7--x3-------------------------------------------------|
C# ----------------------------------------------------------------------------------|
G# ----------------------------------------------------------------------------------|
C# ----------------------------------------------------------------------------------|

D# -------------------------------------------------10/12p5--------------------------|
A# ----11/10p6---------------------------11/10p6-------------13p6--------------------|
F# --------------10/11p7---9p7----x3-------------------------------------------------|
C# ----------------------------------------------------------------------------------|
G# ----------------------------------------------------------------------------------|
C# ----------------------------------------------------------------------------------|

D# ----------------------------------------------------------------------------------|
A# -11/10p6-----------------------11/10p6----10p6--11/10p6---------------------------|
F# ----------10/11p7---9p7----x3-----------------------------9/10p7---12/10--10p7----|
C# ----------------------------------------------------------------------------------|
G# ----------------------------------------------------------------------------------|
C# ----------------------------------------------------------------------------------|
Tap to rate this tab
 
# A B C D E F G H I J K L M N O P Q R S T U V W X Y Z