Song name
# A B C D E F G H I J K L M N O P Q R S T U V W X Y Z

Memphis May Fire - Without Walls tab

Without Walls
Memphis may Fire


Guitar 1


      H.           Q         E  E  S S E  E   S E  S  E     E   S E  S E  E   S E  S E   
D#||----------------------|------------------------------|------------------------------|
A#||----------------------|------------------------------|------------------------------|
F#||----------------------|------------------------------|------------------------------|
C#||----------------------|------------------------------|-----------0------------------|
G#||----------------------|---------------5~-------8~----|--------4--L------------------|
C#||---------------2br----|--0--0--3-2-0------0-0-----0--|--7b--0------0--7b--0-3--5-0--|


        PM PM       PM    PM             PM PM                  
  E  E  S  S  E  E  S  E  S  E     E  E  S  S  E  E  S E  S E   
--------------------------------|------------------------------|
--------------------------------|------------------------------|
--7-----------------------------|--6---------------------------|
-----8--------------------------|-----7-----------5----7----3--|
-----------------5--------------|--------0--0--0--5--x-7--x-3--|
--------8--8--8-----8--8--8--5--|-----------------5--x-7--x-3--|


  E  E  S S E  E   S E  S  E     E   S E  S E  E   S E  S E   
------------------------------|------------------------------|
------------------------------|------------------------------|
------------------------------|------------------------------|
------------------------------|-----------0------------------|
---------------5~-------8~----|--------4--L------------------|
--0--0--3-2-0------0-0-----0--|--7b--0------0--7b--0-3--5-0--|


        PM PM                                                    
  E  E  S  S  E  E  S E  S E     E  E  E  E   S  S  S S S S S S  
------------------------------|---------------------------------|
------------------------------|---------------------------------|
------------------------------|---------------------------------|
--8---------------------------|--7--7--7--7-----------------7-7-|
-----5------------------------|--7--7--7--7-----------7-7-7-----|
--------8--8--8--7--x-8--x-5--|--7--7--7--7--11-11-11-----------|


  E  E  S S E  E   S E  S  E     E   S E  S E  E   S E  S E   
------------------------------|------------------------------|
------------------------------|------------------------------|
------------------------------|------------------------------|
------------------------7~----|-----------0------------------|
---------------5~-------------|--------4--L------------------|
--0--0--3-2-0------0-0-----0--|--7b--0------0--7b--0-3--5-0--|


        PM PM       PM    PM             PM PM                  
  E  E  S  S  E  E  S  E  S  E     E  E  S  S  E  E  S E  S E   
--------------------------------|------------------------------|
--------------------------------|------------------------------|
--7-----------------------------|--6---------------------------|
-----8--------------------------|-----7-----------5----7----3--|
-----------------5--------------|--------0--0--0--5--x-7--x-3--|
--------8--8--8-----8--8--8--5--|-----------------5--x-7--x-3--|


  E  E  S S E  E   S E  S  E     E   S E  S E  E   S E  S E   
------------------------------|------------------------------|
------------------------------|------------------------------|
------------------------------|------------------------------|
------------------------7~----|-----------0------------------|
---------------5~-------------|--------4--L------------------|
--0--0--3-2-0------0-0-----0--|--7b--0------0--7b--0-3--5-0--|


        PM PM                                            PM  PM  PM PM PM PM PM PM PM PM  
                                                                    |--3--|               
  E  E  S  S  E  E  S E  S E     E  E  E  E  H           E.  E.  E  S  S  S  E  E  S  S   
------------------------------|-----------------------|----------------------------------|
------------------------------|-----------------------|----------------------------------|
------------------------------|-----------------------|----------------------------------|
--8---------------------------|--7--7--7--7-----------|----------------------------------|
-----5------------------------|--7--7--7--7-----------|--0---0---0--0--0--0--0--0--0--0--|
--------8--8--8--7--x-8--x-5--|--7--7--7--7-----------|--0---0---0--0--0--0--0--0--0--0--|


                NH  NH         PM PM PM PM PM PM PM PM PM PM PM PM PM  
                                                 |--3--|               
  H        E    S   E  S E     S  S  E  S  E  S  S  S  S  E  S  E  S   
----------------------------|-----------------------------------------|
----------------------------|-----------------------------------------|
----------------------------|-----------------------------------------|
----------------------------|-----------------------------------------|
----------------------------|--0--0--0--0--0--0--0--0--0--0--0--0--0--|
--------------<>2-<>4--0-0--|--0--0--0--0--0--0--0--0--0--0--0--0--0--|


                               PM  PM  PM PM PM PM PM PM PM PM  
                                          |--3--|               
  E  S E  S E  E  S E  S E     E.  E.  E  S  S  S  E  E  S  S   
----------------------------|----------------------------------|
----------------------------|----------------------------------|
----------------------------|----------------------------------|
----------------------------|----------------------------------|
----------------------------|--0---0---0--0--0--0--0--0--0--0--|
-----8-7--3-5-----3-2--0-0--|--0---0---0--0--0--0--0--0--0--0--|


     PM PM PM PM   PM PM PM PM PM    PM   PM   PM PM PM PM PM PM      
                                                  |--3--|             
  E  S  E  S  Q    S  E  S  S  S     E  S E  S E  S  S  S  E  E  S S  
----------------------------------|----------------------------------|
----------------------------------|----------------------------------|
----------------------------------|----------------------------------|
----------------------------------|----------------------------------|
--L--0--0--0--0----0--0--0--0--0--|--0----0----0--0--0--0--0--0--5-5-|
--L--0--0--0--0----0--0--0--0--0--|--0----0----0--0--0--0--0--0------|


                                  PM                  
  E.  E.  E   E   S E   S  E      Q    H.             
-------------------------------|--------------------||
-------------------------------|--------------------||
-------------------------------|--------------------||
--3---5------------------------|--------------------||
--3---5------------------------|--0-----------------||
--3---5---2~--8~--x-8~--x-11b--|--0-----------------||


Guitar 2

      H.           Q         E  E  S S E  E   S E  S  E     E   S E  S E  E   S E  S E   
D#||----------------------|------------------------------|------------------------------|
A#||----------------------|------------------------------|------------------------------|
F#||----------------------|------------------------------|------------------------------|
C#||----------------------|------------------------------|-----------0------------------|
G#||----------------------|---------------5~-------8~----|--------4--L------------------|
C#||---------------2br----|--0--0--3-2-0------0-0-----0--|--7b--0------0--7b--0-3--5-0--|


        PM PM       PM    PM             PM PM                  
  E  E  S  S  E  E  S  E  S  E     E  E  S  S  E  E  S E  S E   
--------------------------------|------------------------------|
--------------------------------|------------------------------|
--------------------------------|------------------------------|
--8-----------------------------|--7--------------5----7----3--|
-----5-----------5--------------|-----4--0--0--0--5--x-7--x-3--|
--------8--8--8-----8--8--8--5--|-----------------5--x-7--x-3--|


  E  E  S S E  E   S E  S  E     E   S E  S E  E   S E  S E   
------------------------------|------------------------------|
------------------------------|------------------------------|
------------------------------|------------------------------|
------------------------------|-----------0------------------|
---------------5~-------8~----|--------4--L------------------|
--0--0--3-2-0------0-0-----0--|--7b--0------0--7b--0-3--5-0--|


        PM PM                       PM    PM                        
  E  E  S  S  E  E  S E  S E     E  S  E  S  E   S  S  S S S S S S  
------------------------------|------------------------------------|
------------------------------|------------------------------------|
------------------------------|------------------------------------|
--8--------------3----5----2--|--7-----7-----7-----------------7-7-|
-----5-----------3--x-5--x-2--|--7-----7-----7-----------7-7-7-----|
--------8--8--8--3--x-5--x-2--|--7--7--7--7--7--11-11-11-----------|


  E  E  S S E  E   S E  S  E     E   S E  S E  E   S E  S E   
------------------------------|------------------------------|
------------------------------|------------------------------|
------------------------------|------------------------------|
------------------------------|-----------0------------------|
---------------5~-------8~----|--------4--L------------------|
--0--0--3-2-0------0-0-----0--|--7b--0------0--7b--0-3--5-0--|


        PM PM       PM    PM             PM PM                  
  E  E  S  S  E  E  S  E  S  E     E  E  S  S  E  E  S E  S E   
--------------------------------|------------------------------|
--------------------------------|------------------------------|
--------------------------------|------------------------------|
--8-----------------------------|--7--------------5----7----3--|
-----5-----------5--------------|-----4--0--0--0--5--x-7--x-3--|
--------8--8--8-----8--8--8--5--|-----------------5--x-7--x-3--|


  E  E  S S E  E   S E  S  E     E   S E  S E  E   S E  S E   
------------------------------|------------------------------|
------------------------------|------------------------------|
------------------------------|------------------------------|
------------------------------|-----------0------------------|
---------------5~-------8~----|--------4--L------------------|
--0--0--3-2-0------0-0-----0--|--7b--0------0--7b--0-3--5-0--|


        PM PM                       PM    PM              
  E  E  S  S  E  E  S E  S E     E  S  E  S  E  H         
------------------------------|--------------------------|
------------------------------|--------------------------|
------------------------------|--------------------------|
--8--------------3----5----2--|--7-----7-----7-----------|
-----5-----------3--x-5--x-2--|--7-----7-----7-----------|
--------8--8--8--3--x-5--x-2--|--7--7--7--7--7-----------|


  PM  PM  PM PM PM PM PM PM PM PM                          NH  NH       
             |--3--|                                                    
  E.  E.  E  S  S  S  E  E  S  S     E   S   E   S E  E    S   E  S E   
----------------------------------|------------------------------------|
----------------------------------|------------------------------------|
----------------------------------|------------------------------------|
----------------------------------|------------------------------------|
--0---0---0--0--0--0--0--0--0--0--|------------------------------------|
--0---0---0--0--0--0--0--0--0--0--|-----12~-12~--0-0-----<>2-<>4--0-0--|


  PM PM PM PM PM PM PM PM PM PM PM PM PM                               
                    |--3--|                                            
  S  S  E  S  E  S  S  S  S  E  S  E  S     E  S E  S E  E  S E  S E   
-----------------------------------------|----------------------------|
-----------------------------------------|----------------------------|
-----------------------------------------|----------------------------|
-----------------------------------------|----------------------------|
--0--0--0--0--0--0--0--0--0--0--0--0--0--|-----5-4--0-1---------------|
--0--0--0--0--0--0--0--0--0--0--0--0--0--|------------------3-2--0-0--|


  PM  PM  PM PM PM PM PM PM PM PM                PM PM PM PM PM  
             |--3--|                                             
  E.  E.  E  S  S  S  E  E  S  S     H        E  S  E  S  S  S   
----------------------------------|-----------------------------|
----------------------------------|-----------------------------|
----------------------------------|-----------------------------|
----------------------------------|-----------------------------|
--0---0---0--0--0--0--0--0--0--0--|--L--------L--0--0--0--0--0--|
--0---0---0--0--0--0--0--0--0--0--|--L--------L--0--0--0--0--0--|


  PM   PM   PM PM PM PM PM PM                          PM           PM                  
               |--3--|                                                                  
  E  S E  S E  S  S  S  E  E  S S    E.  E.  E   E   S E  S  E      Q    H.             
----------------------------------|------------------------------|--------------------||
----------------------------------|------------------------------|--------------------||
----------------------------------|------------------------------|--------------------||
----------------------------------|--3---5-----------------------|--------------------||
--0----0----0--0--0--0--0--0--5-5-|--3---5-------------8---------|--0-----------------||
--0----0----0--0--0--0--0--0------|--3---5---2~--8~--x-8--x-11b--|--0-----------------||




Duration Legend
---------------
W - whole
H - half
Q - quarter
E - 8th
S - 16th
T - 32nd
X - 64th
. - note dotted
|-n-|  - n-tuplets


Tablature Legend
----------------
L - tied note
x - dead note
g - grace note
(n) - ghost note
> - accentuded note
NH - natural harmonic
AH - artificial harmonic
TH - tapped harmonic
SH - semi harmonic
PH - pitch harmonic
h - hammer on
p - pull off
b - bend
br - bendRelease
pb - preBend
pbr - preBendRelease
brb - bendReleaseBend
\n/ - tremolo bar dip
\n - tremolo bar dive
-/n - tremolo bar Release up
/n\ - tremolo bar inverted dip
/n - tremolo bar return
-\n - tremolo bar Release down
S - shift slide
s - legato slide
/ -  slide into from below or out of upwards
\ -  slide into from above or out of downwards
~ - vibrato
W - wide vibrato
tr - trill
TP - tremolo picking
T - tapping
S - slap
P - pop
< - fade in
^ - brush up
v - brush down
Tap to rate this tab
# A B C D E F G H I J K L M N O P Q R S T U V W X Y Z