Memphis Morticians - King Creole tab

-----------------------------------------------------------------------------
                   King Creole (Elvis Presley Cover)
-----------------------------------------------------------------------------
Song:King Creole (Elvis Presley Cover)
Artist:Memphis Morticians
Album:God Save The King (A Psycho-Billy Tribute To Elvis)
Website:http://www.memphismorticians.com/
Tuning: Standard

Intro:
e----------------------------------------------------------------------------|
b----------------------------------------------------------------------------|
g----------------------------------------------------------------------------|
d----------------------------------------------------------------------------|
a-1----1--1-------1----1--1-------1----1--1-------1----1--1-------1----1--1--|
e------------3--1------------3--1------------3--1------------3--1------------|
                                                                  Chorus:
e-----------------------------------------------------|  |-------|------------|
b-----------------------------------------------------|  |-------|------------|
g-----------------------------------------------------|  |-------|--------3-3-|
d-----------------------------------------------------|X2|-------|----5-5-----|
a------1----1--1-------1----1--1-------1----1--1------|  |-8/1---|6-6---------|
e-3--1------------3--1------------3--1------------3--1|  |-------|------------|

e-----------------------------------------------------------------------------|
b-------------------------------------------------------------------------1-1-|
g-3--5-5--6-6--5-5--3-3-----------------------------------------------2-2-----|
d-----------------------5-5----------3-3--5-5--6-6--5-5--3-3------3-3---------|
a--------------------------------5-5-------------------------5-5--------------|
e----------------------------6-6----------------------------------------------|
                                                                  Verse:
e----------------------------------------------------------------|------------|
b----------------------------------------------------------------|------------|
g-2-2-----0-0--3-3--0-0----------------0-0--1-1--0-0-------------|------------|
d-----1-1--------------------0-0--3-3-----------------3-3--0-0---|------------|
a------------------------1-1-------------------------------------|-1---1--1---|
e----------------------------------------------------------------|----------3-|

e-----------------------------------------------------------------------------|
b-----------------------------------------------------------------------------|
g-----------------------------------------------------------------------------|
d-----------------------------------------------------------------------------|
a---1----1--1------1----1--1-------1----1--1-------1----1--1------1----1--1---|
e-1-----------3--1------------3--1------------3--1-----------3--1-----------3-|
         Chorus:
e-------|--------------------------------------------------------------------|
b-------|--------------------------------------------------------------------|
g-------|---------3-3--5-5--6-6--5-5--3-3------------------------------------|
d-------|-----5-5-------------------------5-5----------3-3--5-5--6-6--5-5--3-|
a----1--|-6-6--------------------------------------5-5-----------------------|
e--1----|--------------------------------------6-6---------------------------|

e---------------------------------------------------------------------------|
b---------------1-1---------------------------------------------------------|
g-----------2-2-----2-2-----0-0--3-3--0-0-------------0-0--1-1--0-0---------|
d-3-----3-3-------------1-1------------------0-0--3-3---------------3-3-0-0-|
a---5-5-----------------------------------1-1-------------------------------|
e---------------------------------------------------------------------------|
Verse:
e----------------------------------------------------------------------------|
b----------------------------------------------------------------------------|
g----------------------------------------------------------------------------|
d----------------------------------------------------------------------------|
a-1----1--1------1----1--1------1----1--1------1----1--1------1----1--1------|
e-----------3--1-----------3--1-----------3--1-----------3--1-----------3--1-|
                         Chorus:
e------------------|----|-----------------------------------------------------|
b------------------|----|-----------------------------------------------------|
g------------------|-9/-|---------3-3--5-5--6-6--5-5--3-3---------------------|
d------------------|----|-----5-5-------------------------5-5----------3-3--5-|
a-1----1--1------1-|----|-6-6--------------------------------------5-5--------|
e-----------3--1---|----|--------------------------------------6-6------------|

e----------------------------------------------------------------------------|
b-------------------------------1-1------------------------------------------|
g---------------------------2-2-----2-2-----0-0--3-3--0-0---------------0-0--|
d-5--6-6--5-5--3-3------3-3-------------1-1--------------------0-0--3-3------|
a------------------5-5-------------------------------------1-1---------------|
e----------------------------------------------------------------------------|
                      Solo:(the strums are two fast i cant count them lol)
                           (the notes are right though....i think........)
e--------------------|--------------------------------------------------------|
b--------------------|--------------------------------------------------------|
g-1-1--0-0-----------|-3333-2-3333-2-3333-2-3333/10--3333-2-3333-2-3333-2-333-|
d-----------3-3--0-0-|--------------------------------------------------------|
a--------------------|--------------------------------------------------------|
e--------------------|--------------------------------------------------------|

e-----------------------------------------------------------------1--1-1-1--1-|
b---3-4444-3-4444-3-4444-3-4444/6b/-------------------------------------------|
g-3---------------------------------3333-2-3333-2-3333-2-3333-6/--------------|
d-----------------------------------------------------------------------------|
a-----------------------------------------------------------------------------|
e-----------------------------------------------------------------------------|
                                                             Verse:
e---1-1-1---------------------------------------------------|-----------------|
b--------3-4-4-3-4-3-4-4-3-4--------------------------------|-----------------|
g-----------------------------3333-2-3333-2-3333-2-3333--6/-|-----------------|
d-----------------------------------------------------------|-----------------|
a-----------------------------------------------------------|-1---1--1------1-|
e-----------------------------------------------------------|----------3--1---|

e---------------------------------------------------------------------------|
b---------------------------------------------------------------------------|
g---------------------------------------------------------------------------|
d---------------------------------------------------------------------------|
a---1--1------1----1--1------1----1--1------1----1--1------1----1--1------1-|
e--------3--1-----------3--1-----------3--1-----------3--1-----------3--1---|
        Chorus:
e------|---------------------------------------------------------------------|
b------|---------------------------------------------------------------------|
g--10/-|---------3-3--5-5--6-6--5-5--3-3-------------------------------------|
d------|-----5-5-------------------------5-5---------3-3--5-5--6-6--5-5--3-3-|
a------|-6-6-------------------------------------5-5-------------------------|
e------|-------------------------------------6-6-----------------------------|

e----------------------------------------------------------------------------|
b------------1-1-------------------------------------------------------------|
g---------2-2-----2-2-----0-0--3-3--0-0--------------0-0--1-1--0-0-----------|
d-----3-3-------------1-1-------------------0-0--3-3---------------3-3--0-0--|
a-5-5-----------------------------------1-1----------------------------------|
e----------------------------------------------------------------------------|
                                                                  Outro:
e----------------------------------------------------------------|-----------|
b---------1-1----------------------------------------------------|-----------|
g-----2-2-----2-2------0-0--3-3--0-0--------------0-0--1-1--0-0--|-----------|
d-3-3--------------1-1-------------------0-0--3-3----------------|-----------|
a------------------------------------1-1-------------------------|-1----1--1-|
e----------------------------------------------------------------|-----------|

e----------------------|
b----------------------|
g----------------------|
d----------------------|
a------1----1--1-----1-|
e-3--1-----------3--1--|

well thats the best that i can do i know the solo was a bit weird and probably could use 
tweaking so if you feel you know what the solo is please post a comment id really like 
help. :)
Tap to rate this tab
 
# A B C D E F G H I J K L M N O P Q R S T U V W X Y Z