Song name
# A B C D E F G H I J K L M N O P Q R S T U V W X Y Z

Men At Work - No Sing Of Yesterday tab

-------------------------------------------------------------------------------
			     No Sing of Yesterday - Men At Work
--------------------------------------------------------------------------------
Tabbed by:Keywa


Tuning:Standard

Intro

e|---------------------------------------------------------------------------|
B|--------------------------------------------------------------3------------|
G|---------------0----0-----0-----------------0-----0-----0-------0----------|
D|-----------------3-----3-----3-----------------3-----3----3-------3--------|
A|---------------------------------------------------------------------------|
E|-----3-----3----------------------3----3----------------------------3------|

Repeat

Chord Change

'I stare at the photograph'

e|---------------------------------------------------------------------------|
B|--------------------------------------------------------------3------------|
G|---------------0----0-----0-----------------0-----0-----0-------0----------|
D|-----------------3-----3-----3-----------------3-----3----3-------3--------|
A|---------------------------------------------------------------------------|
E|-----1-----1----------------------1----1----------------------------1------|

Chorus

'I can't hear you calling, I can hear you calling
I cant hear you anymore, Metal ships are falling etc...

   B flat                  A                     C                G
e|---------------------------------------------------------------------------|
B|----3-------------------------------------------5--------------------------|
G|----3--------------------7----------------------5---------------5----------|
D|----3--------------------7----------------------5---------------5----------|
A|----1--------------------7----------------------3---------------5----------|
E|-------------------------5--------------------------------------3----------|


Solo

e|-------------------------------/15----/13-----6-----8/10--6b8r6b8r6----------|
B|------------------------------------------------8-------------------8--------|
G|---/10--/9-----3-------------------------------------------------------------|
D|------------------5-3--------------------------------------------------------|
A|-----------------------------------------------------------------------------|
E|-----------------------3-----------------------------------------------------|

e|--------10----\8------/12---------------------------------------------/15--|
B|----/11----------8-------13-----6--3----------------3---------5------------|
G|--------------------------------------4----------3-------------------------|
D|-----------------------------------------5---5-----------------------------|
A|---------------------------------------------------------------------------|
E|---------------------------------------------------------------------------|


Pull out the stop plugs, drain all the waste
Who needs it anyway
Fill all the big holes, leave no trace
No sign of yesterday

I was all the dishes and I clean up my place
No sign of yesterday
I stare at the photographs of your dark face
No sign of yesterday

Out in the yard, was such a lovely place
Its where we used to play
Inside, outside you can feel and taste.
No sign of yesterday

And I cant hear you calling
I cant hear you calling
I cant hear you anymore
Metal ships are falling
This old car keeps stalling
Always seems to be the way

Pick up the pieces, and go dig out the dead
Then you can go to bed
Night is the stealer and time is the test
No sign of yesterday

Pull out the stop plugs, drain all the waste
Who needs it anyway
Fill all the big holes, leave no trace
No sign of yesterday

And I cant hear you calling
I cant hear you calling
I cant hear you anymore
Metal ships are falling
This old car keeps stalling
Always seems to be the way

| /  slide up
| \  slide down
| h  hammer-on
| p  pull-off
| ~  vibrato
| +  harmonic
| x  Mute note
===============================================================================
Tap to rate this tab
# A B C D E F G H I J K L M N O P Q R S T U V W X Y Z