Song name
# A B C D E F G H I J K L M N O P Q R S T U V W X Y Z

Men At Work - Down Under tab

here is basically how the song goes:



Bm - A - Bm - G - A

2----0---2----3---0
3----2---3----0---2
4----2---4----0---2
4----2---4----0---2
2----0---2----2---0
x----x---x----3---x


and when you hit the chorus it changes slightly:


D - A - Bm - G - A

2---0---2----3---0
3---2---3----0---2
2---2---4----0---2
0---2---4----0---2
x---0---2----2---0
x---x---x----3---x
Tap to rate this tab
# A B C D E F G H I J K L M N O P Q R S T U V W X Y Z