Men At Work - Overkill tab

-------------------------------------------------------------------------------
			     Overkill (solo) - Men at Work
-------------------------------------------------------------------------------
Tabbed by:Rob L
Email: I'm not sure how to impliment hammer-ons, pull offs and slides appropiately on
here...but I'm sure you'll figure it out. Aside from that and unlike the others tabs and
videos available, I'm confiedent this is 100% correct (with the studio version). Feel 
free to e-mail me with any questions. srv68@hotmail.com

Tuning: Standard 4-40

e|---------------------------------------------------------------------------|
B|------------------------------5--------------------------------------------|
G|-----9~~~9^11-9-8~~---4-6-6^7---7-6~~~(4-2-1-)---2-1-----------------------|
D|----------------------------------------------------2-2/4-2--4-2-----------|
A|----------------------------------------------------------------4-2-2-4~~--|
E|---------------------------------------------------------------------------|

e|---------------------------------------------------------------------------|
B|------9-11-9----------7/5~~-4~5~-------------------------------------------|
G|------9----9----4\6-------------4~6~---------------------------------------|
D|----------------4\6-----------------4~6~-----------------------------------|
A|-\11------------------------------------4/2~~~2-4-5-6-5-4~~-----(2-0-------|
E|---------------------------------------------------------------------4-----|


e|-------------------------------------------------9-11-12-14-12-14-14^16-12-|
B|--------------------------------(4-5-7)--9-10-12---------------------------|
G|--------------------------(4-6)--------------------------------------------|
D|------------------(4-6-7)--------------------------------------------------|
A|----------(4-6-7)----------------------------------------------------------|
E|-4-5-7)--------------------------------------------------------------------|

e|----12-12------------\12-11---------12~~14-11~~~~9~~11-8~~8-9-11-12~~~~----|
B|12--------14~~--------------12-9~~~----------------------------------------|
G|---------------------------------------------------------------------------|
D|---------------------------------------------------------------------------|
A|---------------------------------------------------------------------------|
E|---------------------------------------------------------------------------|
Tap to rate this tab
 
# A B C D E F G H I J K L M N O P Q R S T U V W X Y Z