Guitaretab - guitar tabs
Song name
# A B C D E F G H I J K L M N O P Q R S T U V W X Y Z

Men At Work - Down By The Sea tab

-------------------------------------------------------------------------------
		Down By the Sea  Men at Work
-------------------------------------------------------------------------------
Tabbed by: Keywa

Synth Keyboard and Percussion Intro

Guitar Intro:

e|---------------------------------------------------------------------------|
B|---------------------------------------------------------------------------|
G|---------------------------------------------------------------------------|
D|--9h11------------------------------------4--------4/9---------------------|
A|-------9----------7h9---------------------4---2----4/9---------------------|
E|----------------------7-----7/9\7/9\7-----2---0----2/7---------------------|

e|---------------------------------------------------------------------------|
B|---------------------------------------------------------------------------|
G|---------------------------------------------------------------------------|
D|--7-7-7\6\4----------------------------------------------------------------|
A|------------7-----6h7-9p7\6\4-6-0------6p4p06p4p0-6p4p0-------------------|
E|-----------------------------------------------------------4/5-------------|

Guitar Picking:

e|---------------------------------------------------------------------------|
B|---------------------------------------------------------------------------|
G|------------9-------9-------9------------------9------9------9-------------|
D|--------------9-------9-------9------------------9------9------9-----------|
A|----9--9--------9-------9-------9------9--9---------9------9------9--------|
E|-7--7--7----------------------------7--7--7--------------------------------|

Picking repeats throughout the whole song.

The rest of the solo Licks are in B.
[ Tab from: http://www.guitaretab.com/m/men-at-work/73416.html ]
'Down by the sea'
e|----------------------------|
B|-----4----------------------|
G|---------4------------------|
D|--------------4-------------|
A|-------------------2--------|
E|----------------------------|



Sax licks

'Your Knee's in the wind'
e|-------5h7p5p0----------|
B|--------------4h5p4-----|
G|--------------------4---|
D|------------------------|
A|------------------------|
E|------------------------|


'Puttin out the bins'
e|------------------------|
B|---------4-5------------|
G|------------------------|
D|------------------------|
A|------------------------|
E|------------------------|


'Down by the docks'
e|-------------------|
B|--------5-4--------|
G|-------------4-----|
D|-------------------|
A|-------------------|
E|-------------------|

If you listen to the song you can pick it up.

Lyrics

Down by the sea
I found your hidden treasure
Just you and me,
We overdosed on pleasure
Your knees in the wind,
We're ruggin' up for winter
Putting out the bins
In cold and windy weather
Down by the docks
Live all the silent sea-ships
Crates are stored on blocks
Where now only the rats live
Sail me down the river
Till we reach the shore
Diving into the center
Eating out the core
Down on the beach
Saluting Captain Benbow
Always out of reach
It's quiet when the tide's low
Climbing up the cliffs
You can see for miles far
The boat that ran adrift
Is sitting on the sandbar
Laughing at the waves
That storm the river mouth
The ice is on the move now
Creeping north and south
Down by the sea
I found your hidden treasure
Just you and me
We over-dosed on pleasure
Listen to your heart
Screamin' at the sky
Can't you feel it tremble?
Don't you wonder why?



| /  slide up
| \  slide down
| h  hammer-on
| p  pull-off
| ~  vibrato
| +  harmonic
| x  Mute note
===============================================================================

Related for Down By The Sea tab