Song name
# A B C D E F G H I J K L M N O P Q R S T U V W X Y Z

Men Without Hats - Safety Dance chords

                                 *Safety Dance*

 You can drop D tune your guitar and have a little fun with that...
 Ill put (0) for that...
 
  = Means let ring
 
    INTRO
|---------------------------------------------------------------|
|---------------------------------------------------------------|
|---------0h2-2-0-0h2===========2-2-0-0h2===========2-2-0-0h2===|
|--------0=======4------0-----0======4------0-----0======4------|
|---------------------------------------------------------------|
|-(0)(0)------------------(0)-----------------(0)---------------|

|-------------------|
|-------------------|
|=========2-2-0-0h2=|x2
|-0-----0======4----|
|-------------------|
|---(0)-------------|

    CHORUS
|------------------------------------------|
|------------------------------------------|
|=========2-2-0-0h2---------5-5------------|Repeat as needed
|-0-----0======4-----------5----5-----5-5p-|
|---------------------5p0-3----------5-----|
|---(0)--------------------------3(5)------|
Tap to rate this tab
# A B C D E F G H I J K L M N O P Q R S T U V W X Y Z