Song name
# A B C D E F G H I J K L M N O P Q R S T U V W X Y Z

Men Women And Children - Messy tab

intro
e|-------------------------------------------------|
B|--12---12------12-12-12-12-----15--12------------|
G|---9----9------9--9---9---9----12---9------------|
D|-------------------------------------------------|
A|-------------------------------------------------|
E|-------------------------------------------------|

main riff
e|-------------------------------------------------|
B|--------------5--5-------------------------------|
G|--------5-----------5-----------7----------------|
D|--7--7-----7-----------7--5--5-------------------|
A|-----------------------------------7-6h7-7777----|
E|-------------------------------------------------|

enjoy!
Tap to rate this tab
# A B C D E F G H I J K L M N O P Q R S T U V W X Y Z