Song name
# A B C D E F G H I J K L M N O P Q R S T U V W X Y Z

Mendeed - Remains Of The Day tab

|--------------|
|--------------|
|-13-----------| x4
|----13-11-13--|
|--------------|
|--------------|


|----------|
|----------|
|-9-8-6-8--| x4
|----------|
|----------|
|----------|


|----------|
|----------|
|-6-8-6-4--| x4
|----------|
|----------|
|----------|


|--------------------------------|
|--------------------------------|
|--------------------------------|
|-11-9-8-9--8-9-8-6--8-6-4-6-2~--|
|--------------------------------|
|--------------------------------|

^ ^ ^ repeat everything above ONCE ^ ^ ^

|--------------------------------------|
|--------------------------------------|
|--------------------------------------|
|-4-6-6-4--4-6--9-6--4-6-6-6--2-9-8-6--|
|-4-6-6-4--4-6--9-6--4-6-6-6--2-9-8-6--|
|-4-6-6-4--4-6--9-6--4-6-6-6--2-9-8-6--|


|-----------------------------------------------------------|
|-----------------------------------------------------------|
|-----------------------------------------------------------|
|--0000--3--0000--5--0000--3--0000--6--0000--3--0000--5-----|
|--0000--3--0000--5--0000--3--0000--6--0000--3--0000--5-----|
|--0000--3--0000--5--0000--3--0000--6--0000--3--0000--5-----|
pm ....     ....     ....     ....     ....     ....
 
|--------------------------|
|--------------------------|
|--------------------------|
|-0--3--0--3--0--3--0--3---|
|-0--3--0--3--0--3--0--3---|
|-0--3--0--3--0--3--0--3---|
pm.     .     .     .

|-----------------|
|-----------------|
|----10---8-------|repeat till end of 1st solo
|10---8---6-------|
|-8---8---6-------|
|-8---------------|


|----------------------12-12--11-11--------------------------|
|-12-12--14-14--15-15----------------14-14--12-12---14--12---|
|------------------------------------------------------------|
|------------------------------------------------------------|
|------------------------------------------------------------|
|------------------------------------------------------------|
pm    .      .      .      .      .      .      .       

|---------------------------------------------|
|-15--1515--16--18---13--1313--14--16--14-----|
|---------------------------------------------|
|---------------------------------------------|
|---------------------------------------------|
|---------------------------------------------|



dis is only 1 guitar

yall know where to repeat



Tap to rate this tab
# A B C D E F G H I J K L M N O P Q R S T U V W X Y Z