Song name
# A B C D E F G H I J K L M N O P Q R S T U V W X Y Z

Mendeed - Beneath A Burning Sky tab

Help us improve GuitareTab! Take a short survey!
BENEATH A BURNING SKY
THIS WAR WILL LAST FOREVER
MENDEED

This is based upon the last tab but with teh necassary adjustments....much better now i 
need the solo..

DROP C# TUNING

riff 1
|---------------------------------------|
|---------------------------------------|
|---------------------------------------| x3
|----------------------------5-5h6------|
|-6-5-6-8-6-5-5h6--6-5-6-8-6------------|
|0-0-0-0-0-0-0----0-0-0-0-0-0-0---------|


riff 2
|-----------------------------------------|
|-----------------------------------------|
|--------------------------------7h8p7h8--| x1
|------------------------5h6p5h6----------|
|-6-5-6-8-6-5-5h6--6-5-6------------------|
|0-0-0-0-0-0-0----0-0-0-0-----------------|


riff 3
|----------------------------------|
|----------------------------------|
|----------------------------------| x2
|-3-3-3-3-3-3-4-4-3-3-3-3-3-3-7-5--|
|-3-3-3-3-3-3-4-4-3-3-3-3-3-3-7-5--|
|-3-3-3-3-3-3-4-4-3-3-3-3-3-3-7-5--|


riff 1
|---------------------------------------|
|---------------------------------------|
|---------------------------------------| x4
|----------------------------5-5h6------|
|-6-5-6-8-6-5-5h6--6-5-6-8-6------------|
|0-0-0-0-0-0-0----0-0-0-0-0-0-0---------|


riff 4
|---------------------------------------------------------------------|
|---------------------------------------------------------------------|
|---------------------------------------------------------------------| x2
|-------5-6-5------------5-6-5----------------------------------------|
|-4-7-6-------7-6--4-7-6-------7-6--------4-6-4------------4-6-4------|
|-----------------------------------6-9-8-------9-8--6-9-8-------9-8--|


riff 5
|---------------------|
|---------------------|
|------8----9-8-------| x8
|-9-11---11-----11-9--|
|---------------------|
|---------------------|


riff 6
|------------------------------|
|------------------------------|
|------------------3-4----3-4--| x4
|-66-8-9-66-8-9-22-----22------|
|-66-----66-----22-----22------|
|-66-----66-----22-----22------|


riff 7
|----------------------------------------------------------------------|      ______________
|-----------------------------------------------|     |these are ones--|
|-----------------------------------------------| x4  |NOT elevens  ---|
|-1111-11--1111-11---1111-11--111-11---1111-11--|     |_____________---|
|-1111-11--1111-11---1111-11--111-11---1111-11-------------------------|
|-1111-11--1111-11---1111-11--111-11---1111-11-------------------------|


riff 8
|------------------------------|
|------------------------------|
|---------------------------1--| x2
|-1111-1-1111-3-1111-4-1111----|
|-1111---1111---1111---1111----|
|-1111---1111---1111---1111----|

|------------------------------|
|------------------------------|
|-------------1------3------4--| x2
|-1111-4-1111---1111---1111----|
|-1111---1111---1111---1111----|
|-1111---1111---1111---1111----|


riff 7
|----------------------------------------------------------------------|      ______________
|-----------------------------------------------|     |these are ones--|
|-----------------------------------------------| x2  |NOT elevens  ---|
|-1111-11--1111-11---1111-11--111-11---1111-11--|     |_____________---|
|-1111-11--1111-11---1111-11--111-11---1111-11-------------------------|
|-1111-11--1111-11---1111-11--111-11---1111-11-------------------------|


riff 1
|---------------------------------------|
|---------------------------------------|
|---------------------------------------| x3
|----------------------------5-5h6------|
|-6-5-6-8-6-5-5h6--6-5-6-8-6------------|
|0-0-0-0-0-0-0----0-0-0-0-0-0-0---------|


riff 2
|-----------------------------------------|
|-----------------------------------------|
|--------------------------------7h8p7h8--| x1
|------------------------5h6p5h6----------|
|-6-5-6-8-6-5-5h6--6-5-6------------------|
|0-0-0-0-0-0-0----0-0-0-0-----------------|


riff 9
|-----------------------------------------|
|-----------------------------------------|
|-----------------------------------------| x4
|-1111-----1111-----1111-4p3-3h4h6-4h6h8--|
|-1111-6p5-1111-8p6-1111------------------|
|-1111-----1111-----1111------------------|


riff 10
|------------------------------------|
|------------------------------------|
|------------------------------------| x2
|-4-x-x--3-x-x--1-x-x-x-x-x-x-x-x-x--|
|-4-x-x--3-x-x--1-x-x-x-x-x-x-x-x-x--|
|-4-x-x--3-x-x--1-x-x-x-x-x-x-x-x-x--|


riff 11
|-------------|
|-------------|
|-------------|
|-9~---9--11--|
|-9~---9--11--|
|-9~---9--11--|


solo.....

part 1
|---------------------------------------------------------|
|------7~----------7~----------7~--11-9----------9-11-9~--|
|-8~-6----8p6-/8-6----8p6-/8-6----------11-10-11----------| x1
|---------------------------------------------------------|
|---------------------------------------------------------|
|---------------------------------------------------------|


part 2 (4:33)
|-----------------------------------------------------|
|-----------------------------------------------------|
|-11~-10-15~-13~--10h11-10-15~-13~--10h11-10-15~-13~--| x1
|-----------------------------------------------------|
|-----------------------------------------------------|
|-----------------------------------------------------|

|---------------------------|
|-14-12----------12-14-12~--|
|-------15-13-15------------| x1
|---------------------------|
|---------------------------|
|---------------------------|


part 3 (4:46)
|-----------------------------------|
|---------14~----------14-12--------|
|-11~--15------11~--15-------15-13--| x1
|-----------------------------------|
|-----------------------------------|
|-----------------------------------|


part 4 (4:53)
|--------------------------------------|
|-----9-11~--14-12----------12-14-12~--|
|-8~---------------15-13-15------------| x1
|--------------------------------------|
|--------------------------------------|
|--------------------------------------|


riff 7
|-----------------------------------------------|
|-----------------------------------------------|
|-----------------------------------------------| x1
|-1111-11--1111-11---1111-11--111-11---1111-11--|
|-1111-11--1111-11---1111-11--111-11---1111-11--|
|-1111-11--1111-11---1111-11--111-11---1111-11--|
Related for Beneath A Burning Sky tab