Song name
# A B C D E F G H I J K L M N O P Q R S T U V W X Y Z

Mendeed - Reaper Wiats tab

standard(eadgbe)

GTR.1
|----------------------------------------------|
|----------------------------------------------|
|----------------------------------------------|
|-00--8-7-8--00--6-4-6--00--9-8-9--00--6-8-6---| X4
|-00---------00---------00---------00----------|
|----------------------------------------------|
  xx         xx         xx         xx            palm mute
gtr 2
|----------------------------------------------|
|----------------------------------------------|
|----------------------------------------------|
|-00--4-3-4--00--3-1-3--00--6-5-6--00--3-5-3---| X4
|-00---------00---------00---------00----------|
|----------------------------------------------|
  xx         xx         xx         xx            palm mute



|------------------------------------|
|------------------------------------|
|--1--0--4--6-----1--6--4--6---------|
|--1--0--4--6-----1--6--4--6---------|
|--1--0--2--4-----1--4--2--4---------|
|------------------------------------|


|--------------------------------------------------------------|
|--------------------------------------------------------------|
|--------------------------------------------------------------| X4
|-8---8-9-11-9-8-----11-9-8-----------------9------------------|
|----------------11---------11~----11-11-11-----8h9h11-9h9h11--|
|--------------------------------------------------------------|


|----------------------------------|
|----------------------------------|
|-8--6--4--3/5----8--6--4--3/5-----|
|-8--6--4--3/5----8--6--4--3/5-----|
|-6--4--2--1/3----6--4--2--1/3-----|
|----------------------------------|
Tap to rate this tab
 
# A B C D E F G H I J K L M N O P Q R S T U V W X Y Z