Song name
# A B C D E F G H I J K L M N O P Q R S T U V W X Y Z

Mendeed - Killing Something Beautiful tab

|-------------------------2---2--1----------|
|-------3---2---------------0-------0-------|
|-----4---4---4--------2--------------------|
|---------------4----3----------------------|
|--2----------------------------------------|
|-------------------------------------------|


|-------------------------2---2--1----------|
|-------3---2---------------0-------0-------|
|-----4---4---4--------2--------------------|
|---------------4----3----------------------|
|--2----------------------------------------|
|-------------------------------------------|


|-------------------------2---2--1----------|
|-------3---2---------------0-------0-------|
|-----4---4---4--------2--------------------|
|---------------4----3----------------------|
|--2----------------------------------------|
|-------------------------------------------|


|-------------------------2---2--1----------|
|-------3---2---------------0-------0-------|
|-----4---4---4--------2--------------------|
|---------------4----3----------------------|
|--2----------------------------------------|
|-------------------------------------------|





Tap to rate this tab
# A B C D E F G H I J K L M N O P Q R S T U V W X Y Z