Guitaretab - guitar tabs
Song name
# A B C D E F G H I J K L M N O P Q R S T U V W X Y Z

Menhir - Effer tab

This is the first little solo-part between the first Chorus and second Verse.


I|-------------------------------------------------------|I
I|-------------------------------------------------------|I
I|---7-7-7-7-5-5h7p5-----5-5/9-9h10p9-7-9----------------|I
I|-------------------7/9---------------------------------|I
I|-------------------------------------------------------|I
I|-------------------------------------------------------|I


This is the long solo part after the third chorus.


I|-----------------------------------------------------|
I|-------------5h6p5---5-6-6/8---8/10-10---------------|
I|-------5-7~~-------7---------------------------------|
I|---5h7-----------------------------------------------|
I|-----------------------------------------------------|
I|-----------------------------------------------------|

 |---------------------5-5-5-7-7-7-7-8-7-5-5-----------|
 |-----------5-6-8-6-8---------------------------------|
 |-------5-7-------------------------------------------|
 |---5h7-----------------------------------------------|
 |-----------------------------------------------------|
 |-----------------------------------------------------|
[ Tab from: http://www.guitaretab.com/m/menhir/180495.html ]
 |---------15-13-12-12/13-13-13---------------------------------------|
 |---10/17-17-15-13-13/15-15-15-15-15-15-13-12-12-12-12-13-13-12-12---|
 |--------------------------------------------------------------------|
 |--------------------------------------------------------------------|
 |--------------------------------------------------------------------|
 |--------------------------------------------------------------------|

 |---15-13-12-12---------------------------------------|
 |---17-15-13-13-13-12-12/10-10-10-12-12-12-13-13------|
 |-----------------------------------------------------|
 |-----------------------------------------------------|
 |-----------------------------------------------------|
 |-----------------------------------------------------|

 |-------------------------------------------------------|I
 |---12h13p12-10-12-12-12/13-13~~------------------------|I
 |-------------------------------------------------------|I
 |-------------------------------------------------------|I
 |-------------------------------------------------------|I
 |-------------------------------------------------------|I


The last parts in the high frets you just play like you think sounds the best. What I 
is almost correct but Iím not sure about the last part.
Related for Effer tab