Song name
# A B C D E F G H I J K L M N O P Q R S T U V W X Y Z

Menhir - Effer tab

Effer - Menhir

Standard tuning

1íst verse

I-------0-------0-------------------3---------1-------|
I----1----1-----1---------1--1----0--0---------1------|
I------2----2---2--------2-2--2--0-0--0-----2---2-----|
I---------------2-------2---2--------------3-3---3----|
I---0-----------0------0----------------------------0-|
I---------------0---------------3------3--1-----------|

--------------------------3-----------------|I
----0h1-1-------1--1----0--0--------0h1--1--|I
---2-----2-----2-2--2--0-0--0-----2----2----|I
--2-------2---2---2--------------2-2----2---|I
-----------0-0------------------0-----------|I
----------------------3------3--------------|I

2íend verse

I-----1---------3---------1---------|
I------2--1----0--0--------1--------|
I----2--2--2--0-0--0-----2--2-------|
I---2-------------------3-3--3------|
I--0---------------------------0----|
I-----------3-------3--1------------|

--------------------------3--------------0--|I
----0h1-1-------1--1----0--0--------0h1-----|I
---2-----2-----2-2--2--0-0--0-----2----2----|I
--2-------2---2---2--------------2-2----2---|I
-----------0-0------------------0-----------|I
----------------------3------3--------------|I

I think this is much like the original song. Try it, please write me if you have any corrections.

the_hebitch@hotmail.com
Tap to rate this tab
 
# A B C D E F G H I J K L M N O P Q R S T U V W X Y Z