Song name
# A B C D E F G H I J K L M N O P Q R S T U V W X Y Z

Menomena - Oahu tab

-------------------------------------------------------------------------------
			     Oahu - Menomena
-------------------------------------------------------------------------------

Tabbed by: Adrian Pearson
Email: am_pearson@laurentian.ca

Tuning: Drop D (DADGBe)

Hopefully this is right. 
Some of the keyboard stuff is written out in Guitar. 

Main Riff: (Throughout the Song)
e|---------------------------------|
B|---------------------------------|
G|----------------------4\2--5--5--|
D|-------0---2h4---4b5--4\2--7--7--|
A|----0-----------------0----0--0--|
D|-0-------------------------------|

(1:23 - 2:14)
e|----15----------15----------15----------15----------15----------15-------|
B|-19----19----19----19----19----19----19----19----19----19----19----19----|
G|----------19----------19-----------19----------19----------19---------19-|
D|-------------------------------------------------------------------------|
A|-------------------------------------------------------------------------|
D|-------------------------------------------------------------------------|

e|----15----------15----------15----------15----------15----------15-------|
B|-17----17----17----17----17----17----17----17----17----17----17----19----|
G|----------17----------17----------17----------17----------17----------19-|
D|-------------------------------------------------------------------------|
A|-------------------------------------------------------------------------|
D|-------------------------------------------------------------------------|

(2:14 - 2:49)
e|--------------------------------------------|
B|--------------------------------------------|
G|--7---------------------5-------------------|
D|------------(0)--------------------(repeat)-|
A|--9---------------------7-------------------|
D|--------------------------------------------|

e|------------------------------------------------|
B|----10---10---10--10----10\8--8----8----12------|
G|--7----7----7--------7----------5----5----------|
D|-------------------------------------------(10)-|
A|------------------------------------------------|
D|------------------------------------------------|

(2:50 - 4:37)
e|--15------------15------------------------------15-15------------|
B|------19------------19--------17---------------------------------|
G|---------19------------19---------19--17-16-17---------(repeat)--|
D|------------19------------19-------------------------------------|
A|-----------------------------------------------------------------|
D|-----------------------------------------------------------------|

| /  slide up
| \  slide down
| h  hammer-on
| p  pull-off
| ~  vibrato
| +  harmonic
| x  Mute note

===============================================================================
Tap to rate this tab
 
# A B C D E F G H I J K L M N O P Q R S T U V W X Y Z