Song name
# A B C D E F G H I J K L M N O P Q R S T U V W X Y Z

Mentake - Moving On tab

                            My American Heart - Moving On

          So i tabbed this already but it turns out i did my tabs wrong so here's the
thing for ya. i don't really think this song is too hard. i tabbed it cuhz it's pretty
keep in mind i did this competely by ear with no other resources... and don't forget to
their new album Hiding Inside The Horrible Weather at the the closest record store near
questions just email me at growlbeneathyourskin@hotmail.com this is still imcomplete but 
is extremely more accurate then my first one, i assure you.

Guitar I
e---------------------------------------------------------------------------|
B------8-8-8------8-8-8------7--------7-7-7---7-7-7------7-------8-8-8------|
G------7-7-7------7-7-7------7--------7-7-7---7-7-7------7-------7-7-7------|
D--555--------555----------55--5---333------333--------333--3--555----------|
A--555--------555----------55--5---333------333--------333--3--555----------|
D--555--------555----------55--5---333------333--------333--3--555----------|


e---------------------------------------------------------------------------|
B------8-8-8----8--88--88--88--88--88---------------------------------------|
G------7-7-7----7--77--77--77--77--77---------------------------------------|
D--555--------55--5---5---5---5---5-----------(x2)--------------------------|
A--555--------55--5---5---5---5---5-----------------------------------------|
D--555--------55--5---5---5---5---5-----------------------------------------|

Guitar II

Guitar II

solo thing
e---------------------------------------------------------------------------|
B-------------------15------------------------------------------------------|
G--------12~----12-----14~-16h14-14h12---------12----15-12-12-12s14---------|
D--12h14-----14--------------------------12h14----14----12-12-12s14---------|
A---------------------------------------------------------------------------|
E---------------------------------------------------------------------------|

e---------------------------------------------------------------------------|
B-------------------15---------------------8--88--8--88--8--88--8-----------|
G--------12~----12-----14~-16h14-14h12-----7--77--7--77--7--77--7-----------|
D--12h14-----14--------------------------55--5---5--5---5--5---5------------|
A----------------------------------------55--5---5--5---5--5---5------------|
D----------------------------------------55--5---5--5---5--5---5------------|
                                                 What can I say?

e---------------------------------------------------------------------------|
B--8----------7-------8-------7------8-------7------------------------------|
G--7----------7-------7-------7------7-------7------------------------------|
D-------(x18)---(x8)-----(x5)---(x2)---(x18)---(x?)-------------------------|
A---------------------------------------------------------------------------|
D---------------------------------------------------------------------------|
   .          .       .       .      .       . (palm mutes)

The cold of the middle west
Has taken advantage of my days
And my mistakes are coming back


e---------------------------------------------------------------------------|
B---8--------8--------7---------8--------7----------------------------------|
G---7--(x5)--7--(x8)--7---(x8)--7--(x8)--7--(x8)---[upstrokes]--------------|
D---5--------5--------5---------5--------5----------------------------------|
A---------------------------------------------------------------------------|
D---------------------------------------------------------------------------|
To haunt me for good

I say I don't mind cause
Every day's another phase
A million miles could mean so much more
Than I could ever say

e--------------------------------------------------------------------------|
B--8~------7~--------------15-----------15------xx-xx----------------------|
G--7~------7~-----12h14p12-----12h14p12---------xx-xx----------------------|
D--5~------5~--------------------------------7-7xx-xx--55------------------|
A--------------------------------------------7-7xx-xx--55------------------|
D--------------------------------------------7-7xx-xx--55------------------|
Why don't you stay right there where
I can see you
Moving on, moving on
Is what I know I do best
But it's so hard to do, hard to do
When you're out in the mid-west

e---------------------------------------------------------------------------|
B-------------------15------------------------------------------------------|
G--------12~----12-----14~-16h14-14h12---------12----15-12-12-12s14---------|
D--12h14-----14--------------------------12h14----14----12-12-12s14---------|
A---------------------------------------------------------------------------|
E---------------------------------------------------------------------------|

e---------------------------------------------------------------------------|
B-------------------15---------------------8--88--8--88--8--88--8-----------|
G--------12~----12-----14~-16h14-14h12-----7--77--7--77--7--77--7-----------|
D--12h14-----14--------------------------55--5---5--5---5--5---5------------|
A----------------------------------------55--5---5--5---5--5---5------------|
D----------------------------------------55--5---5--5---5--5---5------------|
                                               Oh, I wish my heart was

e---------------------------------------------------------------------------|
B---------------------------------------------------------------------------|
G--------------------------------------------------------7------------------|
D--------------5----------------------------------5--5h7--7-----------------|
A--5p2h5-5--2h5---2h5-5--2h5p2----5p2h5-5--2h5-2h5--------------------------|
D---------------------------------------------------------------------------|
fine-tuned
And ready to go but
It's too soon to let that happen

e---------------------------------------------------------------------------|
B---------------------------------------------------------------------------|
G--------------------------------------------------------7------------12----|
D--------------5----------------------------------5--5h7--7------12h14------|
A--5p2h5-5--2h5---2h5-5--2h5p2----5p2h5-5--2h5-2h5--------------------------|
D---------------------------------------------------------------------------|
It feels like my head is falling,
Falling off my neck
Tap to rate this tab
# A B C D E F G H I J K L M N O P Q R S T U V W X Y Z