Song name
# A B C D E F G H I J K L M N O P Q R S T U V W X Y Z

Mental Distortion - Useless tab

Mental Distortion   Useless.
 Tabbed by Richard   DeaditeBeast2000@aol.com.
  

Intro:  Reapeat 2
a-----8p7-----6p5-----3p2-----2h3-----5h6-----7h8b----
e-0-0-----0-0-----0-0-----0-0-----0-0-----0-0---------

Verse 1: repeat 2
a----------------------------------------
e----------------------------------------

Pre-Chorus: reapeat 2
a----4-----5-4-4-----5-4-4-----5-4-4-----5-4-3~----
e-12/2-0-0-3/2-2-0-0-3/2-2-0-0-3/2-2-0-0-3/2-1~----

Chorus:  reapeat 3
a-4-4-5-4-4-4-5-4-4-4-5-4-0-2-5-2-0--------
e-2-------2-------2-----------------12/2---

Verse 1

pre-chorus

chorus

Outro
g------------------------5-5--------
d---5-4-5-4--5-4-5-4--5-4------------
a--2--------2--------2---------------
e-3--------3--------3---------------- 
:: Ultimate Guitar Archive :: 
http://www.ultimate-guitar.com 



Tap to rate this tab
 
# A B C D E F G H I J K L M N O P Q R S T U V W X Y Z