Song name
# A B C D E F G H I J K L M N O P Q R S T U V W X Y Z

Mental - Future Waves tab

/ - slide

Intro x4 (last time play the second ending)
e|----------------------------|----------|
B|----------------------------|----------|
G|-3--------3--------3-3-3-3--|-6-6-6-6--|
D|-3-3-3-3--3-3-3-3--3-3-3-3--|-6-6-6-6--|
A|-1-3-3-3--1-3-3-3--1-1-1-1--|-4-4-4-4--|
E|---1-1-1----1-1-1-----------|----------|

Verse x4
e|-------------------|
B|-------------------|
G|-3--------6---6----|
D|-3-3-3-3--6-6-6-6--|
A|-1-3-3-3--4-6-4-6--|
E|---1-1-1----4---4--|

Chorus x4
e|------------------------|
B|------------------------|
G|-3--------3--------6----|
D|-3-3-3-3--3-3-3-3--6-6--|
A|-1-3-3-3--1-3-3-3--4-6--|
E|---1-1-1----1-1-1----4--|

Verse x4
e|-------------------|
B|-------------------|
G|-3--------6---6----|
D|-3-3-3-3--6-6-6-6--|
A|-1-3-3-3--4-6-4-6--|
E|---1-1-1----4---4--|

Chorus x4
e|------------------------|
B|------------------------|
G|-3--------3--------6----|
D|-3-3-3-3--3-3-3-3--6-6--|
A|-1-3-3-3--1-3-3-3--4-6--|
E|---1-1-1----1-1-1----4--|

Break x6
e|------------------------------------------------------------|
B|------------------------------------------------------------|
G|----------------------------------3-3-3-3-3-3---------------|
D|-3-3-3-3-3-3-3-3-3-3-3-3-3-3-3-3--3-3-3-3-3-3--6-6-6-6-6-5--|
A|-3-3-3-3-3-3-3-3-3-3-3-3-3-3-3-3--1-1-1-1-1-1--6-6-6-6-6-5--|
E|-1-1-1-1-1-1-1-1-1-1-1-1-1-1-1-1---------------4-4-4-4-4-3--|

Breakdown x8
e|----------------------------|
B|----------------------------|
G|----------------3----6-6-6--|
D|-3/5-5-5-5-5-5--3-3--6-6-6--|
A|-3/5-5-5-5-5-5--1-3--4-4-4--|
E|-1/3-3-3-3-3-3----1---------|

End on x1
e|----|
B|----|
G|----|
D|-5--|
A|-5--|
E|-3--|
Tap to rate this tab
# A B C D E F G H I J K L M N O P Q R S T U V W X Y Z