Song name
# A B C D E F G H I J K L M N O P Q R S T U V W X Y Z

Mental - Sike tab

-------------------------------------------------------------------------------------
                                   SIKE - Mental
-------------------------------------------------------------------------------------

By: DJOLE


   Verse/Chorus                                                       Bridge
E|------------------------------------------------------------------|---------------|
B|------------------------------------------------------------(x )--|---------(x2)--|
G|--6-7-4--6-6-6---6-7-4--6-6-6---6-7-4--6-6-6----------------------|--7-6----------|
D|--6-7-4--6-6-6---6-7-4--6-6-6---6-7-4--6-6-6--7-7-7--6-6-6--------|--7-6-7--------|
A|--4-5-2--4-4-4---4-5-2--4-4-4---4-5-2--4-4-4--7-7-7--6-6-6--------|--5-4-7--------|
E|----------------------------------------------5-5-5--4-4-4--------|------5--------|

   Repeat Verse/Chorus

   Break/Outro
E|-----------------------------------------------|----------------------------------||
B|-----------------------------------------(x )--|----------------------------------||
G|--------------------6-5------------------------|----------------------------------||
D|--7-6-4--6-6-6--7-7-6-5---7-6-4--6-6-6---------|--7-6-4--6-6----------------------||
A|--7-6-4--6-6-6--7-7-4-3---7-6-4--6-6-6---------|--7-6-4--6-6----------------------||
E|--5/4-2--4-4-4--5-5-------5/4-2--4-4-4---------|--5/4-2--4-4----------------------||

======================================================================================
Tap to rate this tab
# A B C D E F G H I J K L M N O P Q R S T U V W X Y Z