Guitaretab - guitar tabs
Song name
# A B C D E F G H I J K L M N O P Q R S T U V W X Y Z

Mentality - Playing Me tab

Off the demo
www.myspace.com/mentalityrock

 Clean.
[-------------------------------------------|
[-------------------------------------------|
[-------------------5--5--5--5--------------|
[-----6--6--6--6--5--5--5--5---4--4--4--4---|
[---6--6--6--6--3--3--3--3---4--4--4--4-----|
[-6--6--6--6---------------4--4--4--4-------|

                             ditorted
[-----------------------------|-------------|
[-----------------------------|-------------|
[-------------------5--5--5--5|-------------|
[-----6--6--6--6--5--5--5--5--|-4-4-4-------|
[---6--6--6--6--3--3--3--3----|-4-4-4-------|
[-6--6--6--6------------------|-4-4-4-------|

[-----------------------------|
[-----------------------------|
[------------------------6(6)-|
[-4h6-6-4-6-6-xx-4h6-6-4-6(6)-|
[-4h6-6-4-6-6-xx-4h6-6-4-4(4)-|
[-4h6-6-4-6-6-xx-4h6-6-4------|

[-----------------------------|
[-----------------------------|
[-----------------------------|
[-4h6-6-4-6-6-xx-4h6-6-4-3(3)-|
[-4h6-6-4-6-6-xx-4h6-6-4-3(3)-|
[-4h6-6-4-6-6-xx-4h6-6-4-3(3)-|

[-----------------------------|
[-----------------------------|
[------------------------6(6)-|
[-4h6-6-4-6-6-xx-4h6-6-4-6(6)-|
[-4h6-6-4-6-6-xx-4h6-6-4-4(4)-|
[-4h6-6-4-6-6-xx-4h6-6-4------|

[--------------------------------|
[--------------------------------|
[--------------------------------|
[-4h6-6-4-6-6-xx-4h6-6-4-3---(3)-|
[-4h6-6-4-6-6-xx-4h6-6-4-3---(3)-|
[-4h6-6-4-6-6-xx-4h6-6-4-3---(3)-|

Verse
These feelings, inside..
[--------------------------|
[--------------------------|  x3
[----------6666-x2---------|
[-6666-x4--6666----4444-x2-|
[-6666-----4444----4444----|
[-6666-------------4444----|

[--------------------------|
[--------------------------|
[----------6---------------|
[-6666-x4--6--4--(4)-------|
[-6666-----4--4--(4)-------|
[-6666--------4--(4)-------|

Chorus
Why would I be the one to..
[-------------------------------x2---|-------------------------------x2------|
[------------------------------------|---------------------------------------|
[--------------------6-6-66----------|--------------------6-6-6-6-7-7-7-7-7--|
[-6--4-6--4-6--4-6-4-6-6-66-4-44-4-4-|-6--4-6--4-6--4-6-4-6-6-6-6-7-7-7-7-7--|
[-6--4-6--4-6--4-6-4-4-4-44-4-44-4-4-|-6--4-6--4-6--4-6-4-4-4-4-4-5-5-5-5-5--|
[-6--4-6--4-6--4-6-4--------4-44-4-4-|-6--4-6--4-6--4-6-4--------------------|

[-----------------------------|
[-----------------------------|
[------------------------6(6)-|
[-4h6-6-4-6-6-xx-4h6-6-4-6(6)-|
[-4h6-6-4-6-6-xx-4h6-6-4-4(4)-|
[-4h6-6-4-6-6-xx-4h6-6-4------|

[-----------------------------|
[-----------------------------|
[-----------------------------|
[-4h6-6-4-6-6-xx-4h6-6-4-3(3)-|
[-4h6-6-4-6-6-xx-4h6-6-4-3(3)-|
[-4h6-6-4-6-6-xx-4h6-6-4-3(3)-|

[-----------------------------|
[-----------------------------|
[------------------------6(6)-|
[-4h6-6-4-6-6-xx-4h6-6-4-6(6)-|
[-4h6-6-4-6-6-xx-4h6-6-4-4(4)-|
[-4h6-6-4-6-6-xx-4h6-6-4------|

[--------------------------------|
[--------------------------------|
[--------------------------------|
[-4h6-6-4-6-6-xx-4h6-6-4-3---(3)-|
[-4h6-6-4-6-6-xx-4h6-6-4-3---(3)-|
[-4h6-6-4-6-6-xx-4h6-6-4-3---(3)-|

Verse
[--------------------------|
[--------------------------|  x3
[----------6666-x2---------|
[-6666-x4--6666----4444-x2-|
[-6666-----4444----4444----|
[-6666-------------4444----|

[--------------------------|
[--------------------------|
[----------6---------------|
[-6666-x4--6--4--(4)-------|
[-6666-----4--4--(4)-------|
[-6666--------4--(4)-------|

[ Tab from: http://www.guitaretab.com/m/mentality/190456.html ]
Chorus
[-------------------------------x2---|-------------------------------x2------|
[------------------------------------|---------------------------------------|
[--------------------6-6-66----------|--------------------6-6-6-6-7-7-7-7-7--|
[-6--4-6--4-6--4-6-4-6-6-66-4-44-4-4-|-6--4-6--4-6--4-6-4-6-6-6-6-7-7-7-7-7--|
[-6--4-6--4-6--4-6-4-4-4-44-4-44-4-4-|-6--4-6--4-6--4-6-4-4-4-4-4-5-5-5-5-5--|
[-6--4-6--4-6--4-6-4--------4-44-4-4-|-6--4-6--4-6--4-6-4--------------------|

[-----------------------------|
[-----------------------------|
[------------------------6(6)-|
[-4h6-6-4-6-6-xx-4h6-6-4-6(6)-|
[-4h6-6-4-6-6-xx-4h6-6-4-4(4)-|
[-4h6-6-4-6-6-xx-4h6-6-4------|

[-----------------------------|
[-----------------------------|
[-----------------------------|
[-4h6-6-4-6-6-xx-4h6-6-4-3(3)-|
[-4h6-6-4-6-6-xx-4h6-6-4-3(3)-|
[-4h6-6-4-6-6-xx-4h6-6-4-3(3)-|

[-----------------------------|
[-----------------------------|
[------------------------6(6)-|
[-4h6-6-4-6-6-xx-4h6-6-4-6(6)-|
[-4h6-6-4-6-6-xx-4h6-6-4-4(4)-|
[-4h6-6-4-6-6-xx-4h6-6-4------|

[--------------------------------|
[--------------------------------|
[--------------------------------|
[-4h6-6-4-6-6-xx-4h6-6-4-3---(3)-|
[-4h6-6-4-6-6-xx-4h6-6-4-3---(3)-|
[-4h6-6-4-6-6-xx-4h6-6-4-3---(3)-|

Solo..
[-------------------------------------------------------------------|
[-------------------------------------------------------------------|
[--------------------------15~--------------------------------------|
[-15(15)-17-17-15-17-17-15-----15(15)-17-17-15-17-17----------------|
[----------------------------------------------------17-15-13-------|
[-------------------------------------------------------------15-17-|

Clean.
[---------------------------------------------|
[---------------------------------------------|
[-------------------5--5--5--5----------------|  x2
[-----6--6--6--6--5--5--5--5---4--4--4--4-----|
[---6--6--6--6--3--3--3--3---4--4--4--4-------|
[-6--6--6--6---------------4--4--4--4---------|

                             ditorted
[-----------------------------|-------------|
[-----------------------------|-------------|
[-------------------5--5--5--5|-------------|
[-----6--6--6--6--5--5--5--5--|-4-(4)-------|
[---6--6--6--6--3--3--3--3----|-4-(4)-------|
[-6--6--6--6------------------|-4-(4)-------|

Chorus
[-------------------------------x2---|-------------------------------x2------|
[------------------------------------|---------------------------------------|
[--------------------6-6-66----------|--------------------6-6-6-6-7-7-7-7-7--|
[-6--4-6--4-6--4-6-4-6-6-66-4-44-4-4-|-6--4-6--4-6--4-6-4-6-6-6-6-7-7-7-7-7--|
[-6--4-6--4-6--4-6-4-4-4-44-4-44-4-4-|-6--4-6--4-6--4-6-4-4-4-4-4-5-5-5-5-5--|
[-6--4-6--4-6--4-6-4--------4-44-4-4-|-6--4-6--4-6--4-6-4--------------------|

[-----------------------------|
[-----------------------------|
[------------------------6(6)-|
[-4h6-6-4-6-6-xx-4h6-6-4-6(6)-|
[-4h6-6-4-6-6-xx-4h6-6-4-4(4)-|
[-4h6-6-4-6-6-xx-4h6-6-4------|

[-----------------------------|
[-----------------------------|
[-----------------------------|
[-4h6-6-4-6-6-xx-4h6-6-4-3(3)-|
[-4h6-6-4-6-6-xx-4h6-6-4-3(3)-|
[-4h6-6-4-6-6-xx-4h6-6-4-3(3)-|

[-----------------------------|
[-----------------------------|
[------------------------6(6)-|
[-4h6-6-4-6-6-xx-4h6-6-4-6(6)-|
[-4h6-6-4-6-6-xx-4h6-6-4-4(4)-|
[-4h6-6-4-6-6-xx-4h6-6-4------|

[--------------------------------|
[--------------------------------|
[--------------------------------|
[-4h6-6-4-6-6-xx-4h6-6-4-3---(3)-|
[-4h6-6-4-6-6-xx-4h6-6-4-3---(3)-|
[-4h6-6-4-6-6-xx-4h6-6-4-3---(3)-|

That is all.. visit our myspace tell us what you think.. http://www.myspace.com/mentalityrock
Related for Playing Me tab
Advertisement will be closed in 10 seconds