Mentality - Let It Be tab

This goes way back in the day, possible coming back of the let it be song?
http://www.myspace.com/mentalityrock
check us out or follow us on twitter! haha

it pretty much goes like this the whole song.

This day is going so fine, I'm feeling..
e----------------------------------|
b----------------------------------|
g-7-7-7-xx-5-5-5-xx----------------|
d-7-7-7-xx-5-5-5-xx-3-3-3-xx-7-7-7-|
a-5-5-5-xx-3-3-3-xx-3-3-3-xx-7-7-7-|
d-------xx-------xx-3-3-3-xx-7-7-7-|

e-------------------------------------|
b-------------------------------------|
g-7-7-7-xx-5-5-5-xx-------------------|
d-7-7-7-xx-5-5-5-xx-3p0-x-3p0-x-0-(0)-|
a-5-5-5-xx-3-3-3-xx-3p0-x-3p0-x-0-(0)-|
d-------xx-------xx-3p0-x-3p0-x-0-(0)-|


Please now, dont cry..

e----------------------------------|
b----------------------------------|
g-7-7-7-xx----------5-5-5-xx-------|
d-7-7-7-xx-7-7-7-xx-5-5-5-xx-3-3-3-|
a-5-5-5-xx-7-7-7-xx-3-3-3-xx-3-3-3-|
d----------7-7-7-xx-------xx-3-3-3-|


e---------------------------------------------|
b---------------------------------------------|
g-7-7-7-xx----------5-5-5-xx------------------|
d-7-7-7-xx-7-7-7-xx-5-5-5-xx-3p0-0-3p0-0-0(0)-|
a-5-5-5-xx-7-7-7-xx-3-3-3-xx-3p0-0-3p0-0-0(0)-|
d----------7-7-7-xx-------xx-3p0-0-3p0-0-0(0)-|
Tap to rate this tab
 
# A B C D E F G H I J K L M N O P Q R S T U V W X Y Z