Song name
# A B C D E F G H I J K L M N O P Q R S T U V W X Y Z

Mephisto Walz - Nicole tab

                                    NICOLE
                          As recorded by Mephisto Walz
                     (From the 2007 Album THE ETERNAL DEEP)

Transcribed by Corey Hunter @ www.coreyhunter.com

* This is a very creepy track. The guitar parts are easy
  but possess a certain "attitude".
  Also, make sure you've got plenty of Chorus / Flange
  when playing this one to further darken the tone.

* These two riffs are the only parts for the song,and shift 
  around at different times and places. Listen out for
  where each one fits in.



 Guitar riff 1
 4/4
  
  Q   E  E  +H        +Q    E  E  +E   E  +Q
|------------------|------------------11-(11)--|
|----12-11-(11)----|-(11)--11-10-(10)----------|
|------------------|---------------------------|
|------------------|---------------------------|
|------------------|---------------------------|
|------------------|---------------------------|


 Guitar riff 2
  Q  E E +H       Q  E E +H       Q  E E +H       Q  E E +E  E +Q
|---------------|---------------|---------------|-------------------|
|----8-7-(7)----|----7----------|----8-7-(7)----|----7--------------|
|---------------|------8-(8)----|---------------|------8-(8)-9-(9)--|
|---------------|---------------|---------------|-------------------|
|---------------|---------------|---------------|-------------------|
|---------------|---------------|---------------|-------------------|


Duration Legend
---------------
W - whole; H - half; Q - quarter; E - 8th; 
+ - note tied to previous; . - note dotted; .. - note double dotted

Duration letters will always appear directly above the note/fret number it represents the
duration for.  Duration letters with no fret number below them represent rests.  Multi-
bar rests are notated in the form Wxn, where n is the number of bars to rest for.

Tap to rate this tab
# A B C D E F G H I J K L M N O P Q R S T U V W X Y Z