Song name
# A B C D E F G H I J K L M N O P Q R S T U V W X Y Z

Mephisto Walz - To The Schadows tab

                           TO THE SCHADOWS
                          As recorded by Mephisto Walz
                       (From the 1993 Album TERRA-REGINA)

Transcribed by www.coreyhunter.com

Gtr I (E A D G B E) - 'Goth Rock'

    Gothic Rock Q=155
   4/4
    Gtr I
    PM  PM  PM|   PM    PM|   PM|   PM    PM|   PM|   PM    PM|   PM|
    E E E E E E E E   E E E E E E E E   E E E E E E E E   E E E E E E E E
||------------------|-----------------|-----------------|-----------------|
||o---2---3-----2---|-3-----2-----2---|-3-----2-----2---|-------2-----2-0-|
||------------------|-----------------|-----------------|-4---------------|
||--4---4---4-4---4-|---4-4---4-4---2-|---2-2---2-2---2-|---2-2---2-2-----|
||o-----------------|-----------------|-----------------|-----------------|
||------------------|-----------------|-----------------|-----------------|


  E E E E E E E E   E E E E E E E E   E E E E E E E E   E E E E E E E E
|-----------------|-----------------|-----------------|------------------||
|---2-0-----2-0---|---2-0-----2-0---|---2-0-----2-0---|---2-0-----2-0---o||
|-------2-------2-|-------2-------2-|-------2-------2-|-------2-------2--||
|-0-------0-------|-0-------0-------|-0-------0-------|-0-------0--------||
|-----------------|-----------------|-----------------|-----------------o||
|-----------------|-----------------|-----------------|------------------||


Tap to rate this tab
# A B C D E F G H I J K L M N O P Q R S T U V W X Y Z