Song name
# A B C D E F G H I J K L M N O P Q R S T U V W X Y Z

Mercenary - Soul Decision tab

#----------------------------------PLEASE NOTE---------------------------------#
#This file is the author's own work and represents their interpretation of the #
#song. You may only use this file for private study, scholarship, or research. #
#------------------------------------------------------------------------------#



Transcribed by Malphas




 

 

Gtr I (B E A D G B E) - 'Guitar'
Gtr II (B E A D G B E) - '(Extra Guitar Bass)'


    Q=182                               1.
   4/4
    Gtrs I, II
    q  q  q  S S E   +e  E q  e Q  S S   q  q  q  S S E   +e  E q  e Q  S S
||-----------------|-------------------|----------------|--------------------||
||-----------------|-------------------|----------------|--------------------||
||o----------------|-------------------|----------------|-------------------o||
||-----------------|-------------------|----------------|--------------------||
||o-2--2--2--2-2-2-|-(2)-2-2--2-2--2-2-|-2--2--2--2-2-2-|-(2)-2-2--2-2--2-2-o||
||--2--2--2--2-2-2-|-(2)-2-2--2-2--2-2-|-2--2--2--2-2-2-|-(2)-2-2--2-2--2-2--||
||--0--0--0--0-0-0-|-(0)-0-0--0-0--0-0-|-0--0--0--0-0-0-|-(0)-0-0--0-0--0-0--||


  2.
  q  q  q  Q    q  e e H
|-------------|-------------|
|-------------|-------------|
|-------------|-------------|
|-------------|-------------|
|-2--2--2--2--|-2--2---2----|
|-2--2--2--2--|-2--2---2----|
|-0--0--0--0--|-0--0-0-0----|


    E S S S S S S E E E E    E S S S S S S E E E E    E S S S S S S E E E E
||------------------------|------------------------|-------------------------|
||------------------------|------------------------|-------------------------|
||o-----------------------|------------------------|-------------------------|
||------------------------|------------------------|-------------------------|
||o-----------------------|----------------9---7---|--------------------7----|
||--7-------------7---9---|-10---------------------|-10-------------7--------|
||----0-0-0-0-0-0---0---0-|----0-0-0-0-0-0---0---0-|----0-0-0-0-0-0---0---0--|


   E S S S S S S  E E E E   E S S S S S S E E E E    E S S S S S S E E E E
|-------------------------|-----------------------|------------------------|
|-------------------------|-----------------------|------------------------|
|-------------------------|-----------------------|------------------------|
|-------------------------|-----------------------|------------------------|
|-------------------------|-----------------------|----------------9---7---|
|-10-------------10---9---|-7-------------7---9---|-10---------------------|
|----0-0-0-0-0-0----0---0-|---8-8-8-8-8-8---8---8-|----8-8-8-8-8-8---8---8-|


   E S S S S S S E E E E    E S S S S S S  E E E E
|------------------------|-------------------------|
|------------------------|-------------------------|
|------------------------|-------------------------|
|------------------------|-------------------------|
|--------------------7---|-------------------------|
|-10-------------7-------|-10-------------10---9---|
|----8-8-8-8-8-8---8---8-|----8-8-8-8-8-8----8---8-|


  E  S  S  S  S  S  S E  E  E  E
|--------------------------------|
|--------------------------------|
|--------------------------------|
|--------------------------------|
|--------------------------------|
|-9-------------------9----10----|
|---10-10-10-10-10-10---10----10-|


   E  S  S  S  S  E  S  S  S  S  E  E
|-------------------------------------|
|-------------------------------------|
|-------------------------------------|
|-------------------------------------|
|-------------------------------------|
|-12-------------12-------------10----|
|----10-10-10-10----10-10-10-10----10-|


  E  S  S  S  S  S  S E  E E  E    E  S  S  S  S  E  S  S  S  S E  E
|-------------------------------|------------------------------------|
|-------------------------------|------------------------------------|
|-------------------------------|------------------------------------|
|-------------------------------|------------------------------------|
|--------------------------7----|------------------------------------|
|-9-------------------7---------|-10-------------10-------------9----|
|---10-10-10-10-10-10---10---10-|----10-10-10-10----10-10-10-10---10-|


  E S S S S S S E E E E   E S S S S S S E E E E
|-----------------------|-----------------------|
|-----------------------|-----------------------|
|-----------------------|-----------------------|
|-----------------------|-----------------------|
|-----------------------|-----------------------|
|-7-------------7-------|-7-------------7-------|
|---0-0-0-0-0-0---0-0-0-|---0-0-0-0-0-0---0-0-0-|


  E  S  S  S  S  S  S E  E  E E    E E  E  E  E  E  E  E
|-------------------------------|-------------------------||
|-------------------------------|-------------------------||
|-------------------------------|------------------------o||
|-------------------------------|-------------------------||
|-------------------------------|----7-------------------o||
|-9-------------------9-------9-|------------10----10-----||
|---10-10-10-10-10-10---10-10---|-10---10-10----10----10--||


    S S S S S S S S q  E E   +e  e Q  e E E e   q  q  q  e E
||-------------------------|------------------|---------------|
||-------------------------|------------------|---------------|
||o------------------------|------------------|---------------|
||-------------------------|------------------|---------------|
||o-2-2-2-2-2-2-2-2-2--2-2-|-(2)-2-2--2-7s5s4-|-2--2--2--2-2--|
||--2-2-2-2-2-2-2-2-2--2-2-|-(2)-2-2--2-7s5s4-|-2--2--2--2-2--|
||--0-0-0-0-0-0-0-0-0--0-0-|-(0)-0-0--0-5s3s2-|-0--0--0--0-0--|


  +E  e Q  e E E e   S S S S S S S S q  E E   +e  e Q  e E E e
|------------------|------------------------|------------------|
|------------------|------------------------|------------------|
|------------------|------------------------|------------------|
|------------------|------------------------|------------------|
|-(2)-2-2--2-7s5s4-|-2-2-2-2-2-2-2-2-2--2-2-|-(2)-2-2--2-7s5s4-|
|-(2)-2-2--2-7s5s4-|-2-2-2-2-2-2-2-2-2--2-2-|-(2)-2-2--2-7s5s4-|
|-(0)-0-0--0-5s3s2-|-0-0-0-0-0-0-0-0-0--0-0-|-(0)-0-0--0-5s3s2-|


  S S S S S S S S S S S S S S S S   S S S S S S S S S S S S S S S S
|---------------------------------|----------------------------------||
|---------------------------------|----------------------------------||
|---------------------------------|---------------------------------o||
|---------------------------------|----------------------------------||
|-7-7-7-7-7-7-7-7-7-7-7-7-7-7-7-7-|-5-5-5-5-5-5-5-5-4-4-4-4-4-4-4-4-o||
|-7-7-7-7-7-7-7-7-7-7-7-7-7-7-7-7-|-5-5-5-5-5-5-5-5-4-4-4-4-4-4-4-4--||
|-5-5-5-5-5-5-5-5-5-5-5-5-5-5-5-5-|-3-3-3-3-3-3-3-3-2-2-2-2-2-2-2-2--||


    E E E E E E E E   E E E E E E E E   E Q  Q  Q  E   +E  Q  Q  Q.     4x
||------------------|-----------------|--------------|------------------||
||------------------|-----------------|--------------|------------------||
||o-----------------|-----------------|--------------|-----------------o||
||------------------|-----------------|--------------|------------------||
||o-2-2-2-2-2-2-2-2-|-2-2-2-2-2-2-2-2-|-5s7--7--7--5-|-(5)-5--4--4-----o||
||--2-2-2-2-2-2-2-2-|-2-2-2-2-2-2-2-2-|-5s7--7--7--5-|-(5)-5--4--4------||
||--0-0-0-0-0-0-0-0-|-0-0-0-0-0-0-0-0-|-3s5--5--5--3-|-(3)-3--2--2------||


    E E E E E E E  E   E E E E E E  E E
||-------------------|------------------|
||-------------------|------------------|
||o------------------|------------------|
||-------------------|------------------|
||o------------------|-----9---7--------|
||--7-----7---9---10-|-------------10---|
||----0-0---0---0----|-0-0---0---0----0-|


  E E E E E E E  E   E E E E E E  E E   4x
|------------------|--------------------||
|------------------|--------------------||
|------------------|-------------------o||
|------------------|--------------------||
|------------------|-----9---7---------o||
|-7-----7---9---10-|-------------10-----||
|---0-0---0---0----|-0-0---0---0----0---||


  E E E E E E E E    E E E E E E E E    E E E E E E E E
|-----------------|------------------|------------------|
|-----------------|------------------|------------------|
|-----------------|------------------|------------------|
|-----------------|------------------|------------------|
|-----------------|----------9---7---|--------------7---|
|-7-------7---9---|-10---------------|-10-------7-------|
|---0-0-0---0---0-|----0-0-0---0---0-|----0-0-0---0---0-|


   E E E E  E E E E   E E E E E E E E    E E E E E E E E
|-------------------|-----------------|------------------|
|-------------------|-----------------|------------------|
|-------------------|-----------------|------------------|
|-------------------|-----------------|------------------|
|-------------------|-----------------|----------9---7---|
|-10-------10---9---|-7-------7---9---|-10---------------|
|----0-0-0----0---0-|---8-8-8---8---8-|----8-8-8---8---8-|


   E E E E E E E E    E E E E  E E E E   E  E  E  E E  E  E  E
|------------------|-------------------|-----------------------|
|------------------|-------------------|-----------------------|
|------------------|-------------------|-----------------------|
|------------------|-------------------|-----------------------|
|--------------7---|-------------------|-----------------------|
|-10-------7-------|-10-------10---9---|-9----------9----10----|
|----8-8-8---8---8-|----8-8-8----8---8-|---10-10-10---10----10-|


   E  E  E  E  E  E  E  E   E  E  E  E E  E E  E    E  E  E  E  E  E E  E
|-------------------------|----------------------|------------------------|
|-------------------------|----------------------|------------------------|
|-------------------------|----------------------|------------------------|
|-------------------------|----------------------|------------------------|
|-------------------------|-----------------7----|------------------------|
|-12-------12-------10----|-9----------7---------|-10-------10-------9----|
|----10-10----10-10----10-|---10-10-10---10---10-|----10-10----10-10---10-|


  E S S S S S S E E E E   E S S S S S S E E E E
|-----------------------|-----------------------|
|-----------------------|-----------------------|
|-----------------------|-----------------------|
|-----------------------|-----------------------|
|-----------------------|-----------------------|
|-7-------------7-------|-7-------------7-------|
|---0-0-0-0-0-0---0-0-0-|---0-0-0-0-0-0---0-0-0-|


  E  S  S  S  S  S  S E  E  E E    E E  E  E  E  E  E  E
|-------------------------------|------------------------|
|-------------------------------|------------------------|
|-------------------------------|------------------------|
|-------------------------------|------------------------|
|-------------------------------|----7-------------------|
|-9-------------------9-------9-|------------10----10----|
|---10-10-10-10-10-10---10-10---|-10---10-10----10----10-|


    S S S S S S S S q  E E   +e  e Q  e E E e   q  q  q  e E
||-------------------------|------------------|---------------|
||-------------------------|------------------|---------------|
||o------------------------|------------------|---------------|
||-------------------------|------------------|---------------|
||o-2-2-2-2-2-2-2-2-2--2-2-|-(2)-2-2--2-7s5s4-|-2--2--2--2-2--|
||--2-2-2-2-2-2-2-2-2--2-2-|-(2)-2-2--2-7s5s4-|-2--2--2--2-2--|
||--0-0-0-0-0-0-0-0-0--0-0-|-(0)-0-0--0-5s3s2-|-0--0--0--0-0--|


  +E  e Q  e E E e   S S S S S S S S q  E E   +e  e Q  e E E e
|------------------|------------------------|------------------|
|------------------|------------------------|------------------|
|------------------|------------------------|------------------|
|------------------|------------------------|------------------|
|-(2)-2-2--2-7s5s4-|-2-2-2-2-2-2-2-2-2--2-2-|-(2)-2-2--2-7s5s4-|
|-(2)-2-2--2-7s5s4-|-2-2-2-2-2-2-2-2-2--2-2-|-(2)-2-2--2-7s5s4-|
|-(0)-0-0--0-5s3s2-|-0-0-0-0-0-0-0-0-0--0-0-|-(0)-0-0--0-5s3s2-|


  S S S S S S S S S S S S S S S S   S S S S S S S S S S S S S S S S
|---------------------------------|----------------------------------||
|---------------------------------|----------------------------------||
|---------------------------------|---------------------------------o||
|---------------------------------|----------------------------------||
|-7-7-7-7-7-7-7-7-7-7-7-7-7-7-7-7-|-5-5-5-5-5-5-5-5-4-4-4-4-4-4-4-4-o||
|-7-7-7-7-7-7-7-7-7-7-7-7-7-7-7-7-|-5-5-5-5-5-5-5-5-4-4-4-4-4-4-4-4--||
|-5-5-5-5-5-5-5-5-5-5-5-5-5-5-5-5-|-3-3-3-3-3-3-3-3-2-2-2-2-2-2-2-2--||


    E E E E E E E E   E E E E E E E E   E Q  Q  Q  E   +E  Q  Q  Q.     4x
||------------------|-----------------|--------------|------------------||
||------------------|-----------------|--------------|------------------||
||o-----------------|-----------------|--------------|-----------------o||
||------------------|-----------------|--------------|------------------||
||o-2-2-2-2-2-2-2-2-|-2-2-2-2-2-2-2-2-|-5s7--7--7--5-|-(5)-5--4--4-----o||
||--2-2-2-2-2-2-2-2-|-2-2-2-2-2-2-2-2-|-5s7--7--7--5-|-(5)-5--4--4------||
||--0-0-0-0-0-0-0-0-|-0-0-0-0-0-0-0-0-|-3s5--5--5--3-|-(3)-3--2--2------||


    E E E E E E E  E   E E E E E E  E E
||-------------------|------------------|
||-------------------|------------------|
||o------------------|------------------|
||-------------------|------------------|
||o------------------|-----9---7--------|
||--7-----7---9---10-|-------------10---|
||----0-0---0---0----|-0-0---0---0----0-|


  E E E E E E E  E   E E E E E E  E E   4x
|------------------|--------------------||
|------------------|--------------------||
|------------------|-------------------o||
|------------------|--------------------||
|------------------|-----9---7---------o||
|-7-----7---9---10-|-------------10-----||
|---0-0---0---0----|-0-0---0---0----0---||


    Q  E Q  Q  E   +E  E Q  Q  Q    Q  E Q  Q  E   +E  E Q  Q   Q
||---------------|----------------|--------------|------------------|
||---------------|----------------|--------------|------------------|
||o--------------|----------------|--------------|------------------|
||-------5-----5-|-(5)------9--7--|------5-----5-|-(5)------9--10---|
||o----7----7----|-----7s9--------|----7----7----|-----7s9----------|
||--0------------|----------------|-0------------|------------------|
||---------------|----------------|--------------|------------------|


  Q  E Q  Q  E   +E  E Q  Q  Q    E E E E E E E  E   E E E E E E  E E
|--------------|----------------|------------------|-------------------||
|--------------|----------------|------------------|-------------------||
|--------------|----------------|------------------|------------------o||
|------5-----5-|-(5)------9--7--|------------------|-------------------||
|----7----7----|-----7s9--------|------------------|-----9---7--------o||
|-0------------|----------------|-7-----7---9---10-|-------------10----||
|--------------|----------------|---0-0---0---0----|-0-0---0---0----0--||


    q  q  q  S S E   +e  E q  e Q  S S   q  q  q  S S E   +e  E q  e Q  S S   3x
||-----------------|-------------------|----------------|---------------------||
||-----------------|-------------------|----------------|---------------------||
||o----------------|-------------------|----------------|--------------------o||
||-----------------|-------------------|----------------|---------------------||
||o-2--2--2--2-2-2-|-(2)-2-2--2-2--2-2-|-2--2--2--2-2-2-|-(2)-2-2--2-2--2-2--o||
||--2--2--2--2-2-2-|-(2)-2-2--2-2--2-2-|-2--2--2--2-2-2-|-(2)-2-2--2-2--2-2---||
||--0--0--0--0-0-0-|-(0)-0-0--0-0--0-0-|-0--0--0--0-0-0-|-(0)-0-0--0-0--0-0---||


  q  q  q  S S E   +e  E q  e Q  S S   q  q  q  q
|----------------|-------------------|-------------|
|----------------|-------------------|-------------|
|----------------|-------------------|-------------|
|----------------|-------------------|-------------|
|-2--2--2--2-2-2-|-(2)-2-2--2-2--2-2-|-2--2--2--2--|
|-2--2--2--2-2-2-|-(2)-2-2--2-2--2-2-|-2--2--2--2--|
|-0--0--0--0-0-0-|-(0)-0-0--0-0--0-0-|-0--0--0--0--|


  Q  E E Q  E E   S S S S S S S S q  Q
|---------------|-----------------------|
|---------------|-----------------------|
|---------------|-----------------------|
|---------------|-----------------------|
|-2--2-2-2--2-2-|-2-2-2-2-2-2-2-2-2-----|
|-2--2-2-2--2-2-|-2-2-2-2-2-2-2-2-2-----|
|-0--0-0-0--0-0-|-0-0-0-0-0-0-0-0-0-----|


    E E E E E E E  E   E E E E E E  E E
||-------------------|------------------|
||-------------------|------------------|
||o------------------|------------------|
||-------------------|------------------|
||o------------------|-----9---7--------|
||--7-----7---9---10-|-------------10---|
||----0-0---0---0----|-0-0---0---0----0-|


  E E E E E E E  E   E E E E E E  E E   4x
|------------------|--------------------||
|------------------|--------------------||
|------------------|-------------------o||
|------------------|--------------------||
|------------------|-----9---7---------o||
|-7-----7---9---10-|-------------10-----||
|---0-0---0---0----|-0-0---0---0----0---||


    Q  E Q  Q  E   +E  E Q  Q  Q    Q  E Q  Q  E   +E  E Q  Q   Q
||---------------|----------------|--------------|------------------|
||---------------|----------------|--------------|------------------|
||o--------------|----------------|--------------|------------------|
||-------5-----5-|-(5)------9--7--|------5-----5-|-(5)------9--10---|
||o----7----7----|-----7s9--------|----7----7----|-----7s9----------|
||--0------------|----------------|-0------------|------------------|
||---------------|----------------|--------------|------------------|


  Q  E Q  Q  E   +E  E Q  Q  Q    E E E E E E E  E   E E E E E E  E E
|--------------|----------------|------------------|-------------------||
|--------------|----------------|------------------|-------------------||
|--------------|----------------|------------------|------------------o||
|------5-----5-|-(5)------9--7--|------------------|-------------------||
|----7----7----|-----7s9--------|------------------|-----9---7--------o||
|-0------------|----------------|-7-----7---9---10-|-------------10----||
|--------------|----------------|---0-0---0---0----|-0-0---0---0----0--||


  q  q  q  q    q  e e H
|-------------|-------------*|
|-------------|-------------*|
|-------------|-------------*|
|-------------|-------------*|
|-2--2--2--2--|-2--2---2----*|
|-2--2--2--2--|-2--2---2----*|
|-0--0--0--0--|-0--0-0-0----*|




--------------------------------------------------------------------------------


Duration Legend
---------------
W - whole; H - half; Q - quarter; E - 8th; S - 16th; T - 32nd; X - 64th; a - acciaccatura
+ - note tied to previous; . - note dotted; .. - note double dotted
Uncapitalized letters represent notes that are staccato (1/2 duration)
Irregular groupings are notated above the duration line
Duration letters will always appear directly above the note/fret number it represents the
duration for.  Duration letters with no fret number below them represent rests.  Multi-
bar rests are notated in the form Wxn, where n is the number of bars to rest for.  Low
melody durations appear below the staff

Tablature Legend
----------------
 h   - hammer-on
 p   - pull-off
 b   - bend
 pb  - pre-bend
 r   - bend release (if no number after the r, then release immediately)
 /\  - slide into or out of (from/to "nowhere")
 s   - legato slide
 S   - shift slide
 - natural harmonic
[n]  - artificial harmonic
n(n) - tapped harmonic
 ~   - vibrato
 tr  - trill
 T   - tap
 TP  - trem. picking
 PM  - palm muting
\n/  - tremolo bar dip; n = amount to dip
 \n  - tremolo bar down
 n/  - tremolo bar up
/n\  - tremolo bar inverted dip
 =   - hold bend; also acts as connecting device for hammers/pulls
 <> - volume swell (louder/softer)
 x   - on rhythm slash represents muted slash
 o   - on rhythm slash represents single note slash

Misc Legend
-----------
 |  - bar
||  - double bar
||o - repeat start
o|| - repeat end
*|  - double bar (ending)
 :  - bar (freetime)
 $  - Segno
 &  - Coda
Tempo markers -  = BPM(8/16=s8/s16), where s8 = swing 8ths, s16 = swing 16ths

Tap to rate this tab
# A B C D E F G H I J K L M N O P Q R S T U V W X Y Z