Song name
# A B C D E F G H I J K L M N O P Q R S T U V W X Y Z

Mercenary - Next To Nothing tab

|    Next to Nothing   |
|          By          |
|       Mercenary      |
|         From         |
|  First Breath "1989" |

Tuning: Tune all strings 4 halfsteps down to C, G, D#, A#, F, C.

Riff 2:

(Mute all)

E -----------------------------------------------------------------|
H -----------------------------------------------------------------|
G -----------------------------------------------------------------|
D -----------------------------------------------------------------|
A -2-2-2222-2-22-2-2-2-2222-2-22-2-2-2-2222-2-22-2-2-2-2222-2-22-2-|
E -0-0-0000-0-00-0-0-0-0000-0-00-0-0-0-0000-0-00-0-0-0-0000-0-00-0-|

Riff 3:

E ------------------------------------------------|
H ------------------------------------------------|
G ------------------------------------------------|
D ---------------------------------------------3--|
A -2-22-----22-2-2---------2-22-----22-2-2-----3--|
E -0-00-1p0-00-0-0-1p0-1p0-0-00-1p0-00-0-0-1p0-1--|
   m mm     mm m m         m mm     mm m m

E ---------------------------------------|
H ---------------------------------------|
G ---------------------------------------|
D ---------------------------------------|
A -2-22-----22-2-2---------2-22-------2--|
E -0-00-1p0-00-0-0-1p0-1p0-0-00-1p0-0-0--|
   m mm     mm m m         m mm     m

Fill 1

E ------------------------------------------------------------|
H ------------------------------------------------------------|
G ------------------------------------------------------------|
D ------------------------------------------------------------|
A --2-------------------------2------------2-----------3------|
E --0-------------------------0------------0--00-4p3-0-1------|
                              >               mm     m

Riff 4A

E ------------------------------------------------------------|
H ------------------------------------------------------------|
G ------------------------------------------------------------|
D ------------------------------------------------------------|
A --2-----------3----------------2-----------3----------------|
E --0--00-4p3-0-1--0-3h4-4p3-1h3-0--00-4p3-0-1--0-3h4-4p3-1h3-|
       mm     m    m                mm     m    m

E ------------------------------------------------------|
H ------------------------------------------------------|
G ------------------------------------------------------|
D ----------------------------------------------5553333-|
A --2-----------3----------------2-----------3--5553333-|
E --0--00-4p3-0-1--0-3h4-4p3-1h3-0--00-4p3-0-1--3331111-|
       mm     m    m                mm     m

Riff 4B

E ------------------------------------------------------------|
H ------------------------------------------------------------|
G ------------------------------------------------------------|
D ------------------------------------------------------------|
A --2-----------3----------------2-----------3----------------|
E --0--00-4p3-0-1--0-3h4-4p3-1h3-0--00-4p3-0-1--0-3h4-4p3-1h3-|
       mm     m    m                mm     m    m

E ------------------------------------------------------|
H ------------------------------------------------------|
G ------------------------------------------------------|
D ------------------------------------------------------|
A --2-----------3----------------2-----------3--5566335-|
E --0--00-4p3-0-1--0-3h4-4p3-1h3-0--00-4p3-0-1--3344113-|
       mm     m    m                mm     m    mmmmmmm


Riff 4C

E ------------------------------------------------------------|
H ------------------------------------------------------------|
G ------------------------------------------------------------|
D ------------------------------------------------------------|
A --2-----------3----------------2-----------3----------------|
E --0--00-4p3-0-1----------------0--00-4p3-0-1--0-3h4-4p3-1h3-|
       mm     m                     mm     m    m

E ------------------------------------------------------|
H ------------------------------------------------------|
G ------------------------------------------------------|
D ----------------------------------------------5553333-|
A --2-----------3----------------2-----------3--5553333-|
E --0--00-4p3-0-1----------------0--00-4p3-0-1--3331111-|
       mm     m                     mm     m

Riff 4D

E ------------------------------------------------------------|
H ------------------------------------------------------------|
G ------------------------------------------------------------|
D ------------------------------------------------------------|
A --2-----------3----------------2-----------3----------------|
E --0--00-4p3-0-1----------------0--00-4p3-0-1----------------|
       mm     m                     mm     m

E ------------------------------------------------------|
H ------------------------------------------------------|
G ------------------------------------------------------|
D ------------------------------------------------------|
A --2-----------3----------------2-----------3----------|
E --0--00-4p3-0-1----------------0--00-4p3-0-1----------|
       mm     m                     mm     m


Riff 5A:

E -----------------------|
H -----------------------|
G -----------------------|
D --7---12--5--10--9--7--|
A -----------------------|
E --5---10--3---8--7--5--|

Riff 5B:

E -----------------------|
H -----------------------|
G --9---4--4---9--9--7---|
D -----------------------|
A --7---2--2---7--7--5---|
E -----------------------|


Riff 6A:

E ---------------------------------------------------------------|
H ---------------------------------------------------------------|
G ---------------------------------------------------------------|
D --7---12--5--10---9--7-------------------7---12--5--10---9--7--|
A ----------------------------2-------3--------------------------|
E --5---10--3---8---7--5--0134-4310134-431-5---10--3---8---7--5--|
                          mmmm mmmmmmm mmm

E -----------------------------------------------------------|
H -----------------------------------------------------------|
G -----------------------------------------------------------|
D --------------------7---12--5--10---9--7-------------------|
A -----2-------3--------------------------------2-------3----|
E -0134----0134-------5---10--3---8---7--5--0134-4310134-431-|
   mmmm    mmmm                             mmmm mmmmmmm mmm

E ------------------------|
H ------------------------|
G ------------------------|
D --7---12--5--10---9--7--|
A ------------------------|
E --5---10--3---8---7--5--|


Riff 6B


E --------------------------------------------------------------|
H --------------------------------------------------------------|
G --9---4--4---9--9--7----------------------9---4--4---9--9--7--|
D --------------------------------------------------------------|
A --7---2--2---7--7--5--------2-------3-----7---2--2---7--7--5--|
E ------------------------0134-4310134-431----------------------|
                          mmmm mmmmmmm mmm

E -----------------------------------------------------------|
H -----------------------------------------------------------|
G -----7-------9------9---4--4---9--9--7---------------------|
D -----------------------------------------------------------|
A -----5-------7------7---2--2---7--7--5--------2-------3----|
E -0134----0134-----------------------------0134-4310134-431-|
   mmmm    mmmm                             mmmm mmmmmmm mmm

E -----------------------|
H -----------------------|
G --9---4--4---9--9--7---|
D -----------------------|
A --7---2--2---7--7--5---|
E -----------------------|


Riff 6C

E --------------------------------------------------------------|
H --------------------------------------------------------------|
G --------------------------------------------------------------|
D --7---12--5--10---9--7------------------7---12--5--10---9--7--|
A ----------------------------2-------3-------------------------|
E --5---10--3---8---7--5--0134----0134----5---10--3---8---7--5--|
                          mmmm    mmmm

Riff 6D

E --------------------------------------------------------------|
H --------------------------------------------------------------|
G --9---4--4---9--9--7--------7-------9-----9---4--4---9--9--7--|
D --------------------------------------------------------------|
A --7---2--2---7--7--5--------5-------7-----7---2--2---7--7--5--|
E ------------------------0134----0134--------------------------|
                          mmmm    mmmm

Riff 7A:

E -----------------------------------------------------|
H -----------------------------------------------------|
G -----------------------------------------------------|
D ------7/9-9---9-7/9-9\7-7---7-7/10-10--10-9/10-10\7--|
A --2--------------------------------------------------|
E --0---5/7-7---7-5/7-7\5-5---5-5/8---8---8-7/8---8\7--|

Riff 7B:

E -----------------------------------------------------|
H -----------------------------------------------------|
G -----------------------------------------------------|
D ------------------------7---7-7/10-10--10-9/10-10\7--|
A --2--------------------------------------------------|
E --0---------------------5---5-5/8---8---8-7/8---8\7--|


Riff 7C:

E -----------------------------------------------------|
H -----------------------------------------------------|
G ------9\7-7---7-5/7-7\5-10--10-10\9-9---9-9/10-10\9--|
D -----------------------------------------------------|
A --2---7\5-5---5-3/5-5\3--8---8--8\7-7---7-7/8---8\7--|
E --0--------------------------------------------------|

Riff 7D:

E -----------------------------------------------------|
H -----------------------------------------------------|
G ------------------------7---7-7/10-10--10-9/10-10\7--|
D -----------------------------------------------------|
A --2---------------------5---5-5/8---8---8-7/8---8\7--|
E --0--------------------------------------------------|

Riff 8A:

E ---------------------------------------------------|
H ---------------------------------------------------|
G ---------------------------------------------------|
D ----3/4-4----3/4-4--4\3-3----3/4-4----3/4-4-4/5-5--|
A --2-1/2-2--2-1/2-2--2\1-1--2-1/2-2--2-1/2-2-2/3-3--|
E --0-1/2-2--0-1/2-2--2\1-1--0-1/2-2--0-1/2-2-2/3-3--|
    m        m               m        m

E -----------------------------------------------------|
H -----------------------------------------------------|
G -----------------------------------------------------|
D ----3/4-4----3/4-4--4\3-3----3/4-4----3/4-4\3-3/5-5--|
A --2-1/2-2--2-1/2-2--2\1-1--2-1/2-2--2-1/2-2\1-1/3-3--|
E --0-1/2-2--0-1/2-2--2\1-1--0-1/2-2--0-1/2-2\1-1/3-3--|
    m        m               m        m

Riff 8B:

E ----------------------------------------------------|
H ----------------------------------------------------|
G ----------------------------------------------------|
D ----3/4-4----3/4-4--4\3-3----3/4-4----3/4-4--4/5-5--|
A ----1/2-2----1/2-2--2\1-1----1/2-2----1/2-2--2/3-3--|
E --001/2-2--001/2-2--2\1-1--001/2-2--001/2-2--2/3-3--|
    mm       mm              mm       mm

E -----------------------------------------------------|
H -----------------------------------------------------|
G -----------------------------------------------------|
D ----3/4-4----3/4-4--4\3-3----3/4-4----3/4-4\3-3/5-5--|
A ----1/2-2----1/2-2--2\1-1----1/2-2----1/2-2\1-1/3-3--|
E --001/2-2--001/2-2--2\1-1--001/2-2--001/2-2\1-1/3-3--|
    mm       mm              mm       mm

Riff 9A:

E ------------------------------------------------------------------|
H ------------------------------------------------------------------|
G ------------------------------------------------------------------|
D ------------------------------------------------------------------|
A -----2-------3-------2---32--2-------2-------3-------2---5---3----|
E -0134-4310134-4310134-431--43-4310134-4310134-4310134-431-310-101-|
   mmmm mmmmmmm mmmmmmm mmm  mm mmmmmmm mmmmmmm mmmmmmm mmm mmm mmm

Riff 9C:

E ------------------------------------------------------------------|
H ------------------------------------------------------------------|
G ------------------------------------------------------------------|
D ------------------------------------------------------------------|
A -----2-------3-------2---5---3-------2-------3-------2---32--2----|
E -0134----0134----0134-----310-1010134----0134----0134------43-431-|
   mmmm    mmmm    mmmm     mmm mmmmmmm    mmmm    mmmm      mm mmm

Riff 9B:

E ------------------------------------------------------------------|
H ------------------------------------------------------------------|
G -----7-------9-------7--------------------------------------------|
D -------------------------------------5-------6-------5------------|
A -----5-------7-------5---5---3---------------------------32--2----|
E -0134----0134----0134-----310-10101343---01344---01343-----43-431-|
   mmmm    mmmm    mmmm     mmm mmmmmmm    mmmm    mmmm      mm mmm

Song structure:

(Where nothing else is indicated, guitar 2 dubs guitar 1)

Guitar 1:    Guitar 2:


Riff 2
Riff 3
Riff 4A      Fill 1
Riff 4B
Riff 4A
Riff 5A      Riff 5B
Riff 4C      Riff 4D
Riff 4B
Riff 4A
Riff 6A      Riff 6B
Riff 7A (x10)Riff 7B (x2)
             Riff 7C (x4)
             Riff 7D (x4)
Riff 8A (x2)
Riff 8B (x2)
Riff 4C      Riff 4D
Riff 4B
Riff 4A
Riff 6C      Riff 6D
Riff 9A (x2)
RIff 9B (x2) Riff 9C (x2)
Tap to rate this tab
 
# A B C D E F G H I J K L M N O P Q R S T U V W X Y Z