Song name
# A B C D E F G H I J K L M N O P Q R S T U V W X Y Z

Mercenary - Sister Jane tab

|      Sister Jane     |
|          By          |
|       Mercenary      |
|         From         |
|  First Breath "1989" |

(Tune 2 half-steps down: D, A, F, C, G, D)

Intro

E --0---0-3-3-3-3---0-0-0---0-0-0-0---0-3-3-3-3---0-0-0-2-2-2-0-|
H --0---0-0-0-0-0---0-0-0---0-0-0-1---1-1-1-1-1---1-1-1-1-1-1-1-|
G --1---1-1-1-1-1---1-1-1---1-1-1-0---0-0-0-0-0---2-2-2-2-2-2-2-|
D --2---2-2-2-2-2---2-2-2---2-2-2-2---2-2-2-2-2---2-2-2-2-2-2-2-|
A --2---2-2-2-2-2---2-2-2---2-2-2-3---3-3-3-3-3---0-0-0-0-0-0-0-|
E --0---0-0-0-0-0---0-0-0---0-0-0-0---0-0-0-0-0-----------------|

Verse

E --7-----7-7-7-7---7-7-7-7-7-7-7-7-7-----7-7-7-7--10101010-7-7-7-7-|
H --7-----7-7-8-8---8-8-8-8-7-7-7-7-7-----7-7-8-8---8-8-8-810101010-|
G --7h9---9-9-9-9---9-9-9-9-9-9-9-9-7h9---9-9-9-9---9-9-9-9-9-9-9-9-|
D --7h9---9-9-9-9---9-9-9-9-9-9-9-9-7h9---9-9-9-9---9-9-9-9-9-9-9-9-|
A --7-----7-7-7-7---7-7-7-7-7-7-7-7-7-----7-7-7-7---7-7-7-7-7-7-7-7-|
E ------------------------------------------------------------------|

E --7-----7-7-7-7---7-7-7-7-7-7-7-7-7-----7-7-7-7---7-7-7-7-7-7-7-7-|
H --7-----7-7-8-8---8-8-8-8-7-7-7-7-7-----7-7-8-8---8-8-8-8-7-7-7-7-|
G --7-----7-7-7-7---7-7-7-7-7-7-7-7-7-----7-7-7-7---7-7-7-7-7-7-7-7-|
D --7h9---9-9-9-9---9-9-9-9-9-9-9-9-7h9---9-9-9-9---9-9-9-9-9-9-9-9-|
A --7h9---9-9-9-9---9-9-9-9-9-9-9-9-7h9---9-9-9-9---9-9-9-9-9-9-9-9-|
E --7-----7-7-7-7---7-7-7-7-7-7-7-7-7-----7-7-7-7---7-7-7-7-7-7-7-7-|

Chorus

E --0---0-3-3-3-3--2--0---0-0-0-0-----0-012121212--101010--0-0-0-|
H --0---0-0-0-0-0--0--0---0-0-0-0-----0-0-0-0-0-0---0-0-0-121212-|
G --1---1-1-1-1-1--1--1---8-8-8-8/9---9-9-9-9-9-9---9-9-9--9-9-9-|
D --2---2-2-2-2-2--2--2---9-9-9-9/10-101010101010--101010-101010-|
A --2---2-2-2-2-2--2--2---9-9-9-9/10-101010101010--101010-101010-|
E --0---0-0-0-0-0--0--0---0-0-0-0-----0-0-0-0-0-0---0-0-0--0-0-0-|


E --0---0-3-3-3-3--2--0---0-0-0-0-----0-0-0-0-0-0---0-0-0--0-0-0-|
H --0---0-0-0-0-0--0--0---0-0-0-0-----0-012121212--101010--0-0-0-|
G --1---1-1-1-1-1--1--1---8-8-8-8/9---9-9-9-9-9-9---9-9-9-121211-|
D --2---2-2-2-2-2--2--2---9-9-9-9/10-101010101010--101010-101010-|
A --2---2-2-2-2-2--2--2---9-9-9-9/10-101010101010--101010-101010-|
E --0---0-0-0-0-0--0--0---0-0-0-0-----0-0-0-0-0-0---0-0-0--0-0-0-|

E --0---0-3-3-3-3--2--0---0-0-0-0-----0-012121212--141414--0-0-0-|
H --0---0-0-0-0-0--0--0---0-0-0-0-----0-0-0-0-0-0---0-0-0-131312-|
G --1---1-1-1-1-1--1--1---8-8-8-8/9---9-9-9-9-9-9---9-9-9--9-9-9-|
D --2---2-2-2-2-2--2--2---9-9-9-9/10-101010101010--101010-101010-|
A --2---2-2-2-2-2--2--2---9-9-9-9/10-101010101010--101010-101010-|
E --0---0-0-0-0-0--0--0---0-0-0-0-----0-0-0-0-0-0---0-0-0--0-0-0-|

E --0---0-3-3-3-3--2--0---0-0-0-0-----0-012121212--121212--12-12-|
H --0---0-0-0-0-0--0--0---0-0-0-0-----0-012121212--121212--12-12-|
G --1---1-1-1-1-1--1--1---8-8-8-8/9---9-9-9-9-9-9--121212--12-12-|
D --2---2-2-2-2-2--2--2---9-9-9-9/10-101010101010--101010--12-12-|
A --2---2-2-2-2-2--2--2---9-9-9-9/10-101010101010--101010--10-10-|
E --0---0-0-0-0-0--0--0---0-0-0-0-----0-0-0-0-0-0---0-0-0---0--0-|

Bridge

E --0--1212-0-0--14141414---1414-0---0-----0---0-0-012---|
H --0---0-0-0-0---0-0-0-0----0-0-0---010-8-0---0-0-012---|
G --9---9-9-911--11111111---111111--11-0-0-9---9-9-9-9---|
D -10--10101012--12121212---121212--12-0-0-9--10101010---|
A -10--10101012--12121212---121215--15-----0---0-0-0-8---|
E --0---0-0-0-0---0-0-0-0----0-0-0---0---------------8---|

Outro

E --0---0-7-7-7-7---0-0-0---0-0-0-0---0-5-5-5-5---0-0-0---0-0-0-3--|
H --0---0-0-0-0-0---0-0-0---0-0-0-0---0-0-0-0-0---0-0-0---0-0-0-0--|
G --4---4-4-4-4-4---4-4-4---4-4-4-2---2-2-2-2-2---2-2-2---2-2-2-0--|
D --6---6-6-6-6-6---6-6-6---6-6-6-4---4-4-4-4-4---4-4-4---4-4-4-2--|
A --7---7-7-7-7-7---7-7-7---7-7-7-5---5-5-5-5-5---5-5-5---5-5-5-3--|
E --0---0-0-0-0-0---0-0-0---0-0-0-0---0-0-0-0-0---0-0-0---0-0-0-0--|

E --3-3-3-3-3-3--3-3-3-3-3-0---0-0-0-0---0-0-0-0---0-0-|
H --0-0-0-0-0-0--0-0-0-0-0-0---0-0-0-0---0-0-0-0---0-0-|
G --0-0-0-0-0-0--0-0-0-0-0-0---0-0-0-0---0-0-0-0---0-0-|
D --2-2-2-2-2-0--0-0-0-0-0-2---2-2-2-2---2-2-2-2---2-2-|
A --3-3-3-3-3-2--2-2-2-2-2-2---2-2-2-2---2-2-2-2---2-2-|
E --0-0-0-0-0-3--3-3-3-3-3-0---0-0-0-0---0-0-0-0---0-0-|

Song Structure

Guitar 1 (Steelstringed western-guitar)

Intro  (x2)
Verse  (x2)
Chorus
Bridge (x2)
Verse  (x2)
Chorus
Bridge (x2)
Intro  (x2)
Verse  (x2)
Chorus
Bridge (x2)
Outro  (until fade)
Tap to rate this tab
# A B C D E F G H I J K L M N O P Q R S T U V W X Y Z