Song name
# A B C D E F G H I J K L M N O P Q R S T U V W X Y Z

Mercenary - Rolling Thunder tab

Mercenary - Rolling Thunder

Tuning: Standard (E A D G B E)

-Vocals-
e|-----------------------------------------------------------------|
B|-----------------------------------------------------------------|
G|-----------------------------------------------------------------|
D|-----------------------------------------------------------------|
A|-----------------------------------------------------------------|
E|-5x15-0-3x15-0-1x15-0-3x7-0-4x7-5x15-0-3x15-0-1x15-0-3x7-0-4x7---|

-Chorus- (Repeat twice)
E|-5-5-5-0-3-3-3-0-1-1-1-0-3-0-4-0-5-5-5-0-3-3-3-0-1-1-1-0-3-0-4-0-|

Repeat 4 times
E|-5x7-0-3x3-0-4x3-0-|

-Vocals-
e|-----------------------------------------------------------------|
B|-----------------------------------------------------------------|
G|-----------------------------------------------------------------|
D|-----------------------------------------------------------------|
A|-5x15-0-3x15-0-1x15-0-3x7-0-4x7-5x15-0-3x15-0-1x15-0-3x7-0-4x7---|
E|-----------------------------------------------------------------|

-Chorus-
e|-----------------------------------------------------------------|
B|-----------------------------------------------------------------|
G|-----------------------------------------------------------------|
D|-----------------------------------------------------------------|
A|-5-5-5-0-3-3-3-0-1-1-1-0-3-0-4-0-5-5-5-0-3-3-3-0-1-1-1-0-3-0-4-0-|
E|-5-5-5-0-3-3-3-0-1-1-1-0-3-0-4-0-5-5-5-0-3-3-3-0-1-1-1-0-3-0-4-0-|

Repeat 4 times
e|-------------------|
B|-------------------|
G|-------------------|
D|-------------------|
A|-5x7-0-3x3-0-4x3-0-|
E|-5x7-0-3x3-0-4x3-0-|

-Solo- (Lead Guitar Only)

-Ending- (Repeat 3 times)
e|---------------------------------|
B|---------------------------------|
G|---------------------------------|
D|---------------------------------|
A|---------------------------------|
E|-5-5-5-0-3-3-3-0-1-1-1-0-3-0-4-0-|



-Second Ending- (Repeat 3 times)
e|---------------------------------|
B|---------------------------------|
G|---------------------------------|
D|---------------------------------|
A|---------------------------------|
E|-5-5-5-0-3-3-3-0-1-1-1-0h--------|

e|---------------------------------|
B|---------------------------------|
G|---------------------------------|
D|---------------------------------|
A|---------------------------------|
E|-3-4---5h------------------------|
Tap to rate this tab
 
# A B C D E F G H I J K L M N O P Q R S T U V W X Y Z