Song name
# A B C D E F G H I J K L M N O P Q R S T U V W X Y Z

Mercenary - Demon8 tab

|        Demon8        |
|          By          |
|       Mercenary      |
|         From         |
|  First Breath "1989" |

Tuning: Tune all strings 4 halfsteps down to C, G, D#, A#, F, C.

Riff 1A:

E ----------------------------------------------------------------|
H ----------------------------------------------------------------|
G --4----3--4--3------------------3--4----3-----------------------|
D ----------------5--7--7/9-4--5---------------5--7--5--4---------|
A --2----1--2--1------------------1--2----1-----------------------|
E ----------------3--5--5/7-2--3---------------3--5--3--2--3-2th3-|

Riff 1B:

E ----------------------------------------------------------------|
H ----------------------------------------------------------------|
G --8----7----4----3--4--7--8--11-11-8-7---11-11-8-4----3---------|
D ----------------------------------------------------------------|
A --6----5----2----1--2--5--6---9--9-6-5----9--9-6-2----1--2-1th2-|
E ----------------------------------------------------------------|

Riff 2:

E -----------------------------------------|
H -----------------------------------------|
G -----------------------------------------|
D -------4/3---3/4-4/3-------4/3---3/4-4/5-|
A -2-----2/1---1/2-2/1-2-----2/1---1/2-2/3-|
E -0-0-0-2/1-0-1/2-2/1-0-0-0-2/1-0-1/2-2/3-|
     m m     m           m m     m

E -----------------------------------------|
H -----------------------------------------|
G -------------------------------------4/5-|
D -------4/3---3/4-4/3-------4/3---3/4-2/3-|
A -2-----2/1---1/2-2/1-2-----2/1---1/2-2/3-|
E -0-0-0-2/1-0-1/2-2/1-0-0-0-2/1-0-1/2-----|
     m m     m           m m     m

Riff 3:

E ---------------------------------------------------|
H ---------------------------------------------------|
G ---------------------------------------------------|
D --------4/3---3/4---4/3-3--------4/3---3/4---4/5-5-|
A -2------2/1---1/2---2/1-1-2------2/1---1/2---2/3-3-|
E -0-0000-2/1-0-1/2-0-2/1-1-0-0000-2/1-0-1/2-0-2/3-3-|
   m mmmm     m     m       m mmmm     m     m

E ---------------------------------------------------|
H ---------------------------------------------------|
G ---------------------------------------------4/6-6-|
D --------4/3---3/4---4/3-3--------4/3---3/4---2/3-3-|
A -2------2/1---1/2---2/1-1-2------2/1---1/2---2/3-3-|
E -0-0000-2/1-0-1/2-0-2/1-1-0-0000-2/1-0-1/2-0-------|
   m mmmm     m     m       m mmmm     m     m

Riff 4A:

E ------------------------------------|
H ------------------------------------|
G ------------------------------------|
D ------------------------------------|
A -----------------------------21-----|
E -0130141301301413013014130130--32---|
   mmmmmmmmmmmm    mmmmmmmmmmmmmmmm

Riff 4B:

E ----------------------------------------|
H ----------------------------------------|
G ----------------------------------------|
D ----------------------------------------|
A -----------------------22221111---------|
E -0130141301301413013014--------33332222-|
   mmmmmmmmmmmm    mmmmmm

Riff 4C:

E ----------------------------------------|
H ----------------------------------------|
G ----------------------------------------|
D ----------------------------------------|
A -----------------------66665555---------|
E -0130141301301413013014--------77776666-|
   mmmmmmmmmmmm    mmmmmm

Riff 5A

E -------------------------------------------------|
H -------------------------------------------------|
G -------------------------------------------------|
D -------------------------------------------------|
A -2--3--5--2--3--6--3--5--2--3--5--2--3--2-----1--|
E -0--1--3--0--1--4--1--3--0--1--3--0--1-----4-----|
   m  m  m  m  m  m  m  m  m  m  m  m  m

E -----------------------------------------------------|
H -----------------------------------------------------|
G -----------------------------------------------------|
D -----------------------------------------------------|
A -2--3--5--2--3--6--3--5--2--3--5--2-22221111---------|
E -0--1--3--0--1--4--1--3--0--1--3--0---------33332222-|
   m  m  m  m  m  m  m  m  m  m  m  m

Riff 5B

E -------------------------------------------------|
H -------------------------------------------------|
G -------------------------------------------------|
D -------------------------------------------------|
A -2--3--5--2--3--6--3--5--2--3--5--2--3-----------|
E -0--1--3--0--1--4--1--3--0--1--3--0--1--4--1--3--|
   m  m  m  m  m  m  m  m  m  m  m  m  m

E -----------------------------------------------------|
H -----------------------------------------------------|
G -----------------------------------------------------|
D -----------------------------------------------------|
A -2--3--5--2--3--6--3--5--2--3--5--2-66665555---------|
E -0--1--3--0--1--4--1--3--0--1--3--0---------77776666-|
   m  m  m  m  m  m  m  m  m  m  m  m


Prechorus A

E ------------------------------------------------|
H 12-12-12-12-12-12-12-12-13-13-13-13-15-15-15-15-|
G ------------------------------------------------|
D -9--9--9--9--9--9--9--9-10-10-10-10-12-12-12-12-|
A ------------------------------------------------|
E ------------------------------------------------|

E -----------------------------------|
H -----------------------------------|
G -5-5-5-5-5-5-5-5-7-7-7-9-9-9-11-11-|
D -----------------------------------|
A -3-3-3-3-3-3-3-3-5-5-5-7-7-7--9--9-|
E -----------------------------------|

Prechorus B

E ----------------------------------------------------------------------------|
H ----------------------------------------------------------------------------|
G -------------------9-9-9---9-9-9---10-10-10-10-10-10--12-10--9-9-9---9-9-9--|
D --3-3-3-3-3-3-5-5-----------------------------------------------------------|
A ------------------7-7-7-7-7-7-7-7-8--8--8--8--8--8--10--8---7-7-7-7-7-7-7-7-|
E -1-1-1-1-1-1-3-3-5-------5---------------------------------5-------5--------|

Chorus:

E -------------------------------------------------------------|
H -------------------------------------------------------------|
G -------------------------------------------------------------|
D -7-7-----9--9--9p7-7-7---------7-7-----9--9--9p7-7-7---------|
A -9-9----10-10-10p9-9-9-7h9-9p7-9-9----10-10-10p9-9-9-7h9-9p7-|
E -7-7-77--7--7--7---7-7-7---7---7-7-77--7--7--7---7-7-7---7---|
       mm                            mm


E -----------------------------------------------------------------|
H -----------------------------------------------------------------|
G -----------------------------------------------------------------|
D -9--9-----10-10p9---9--9-7h9---9p7-7-7-----9--9--9p7-7-7-5h7-7-7-|
A -10-10----12-12p10-10-10-9h10-10p9-9-9----10-10-10p9-9-9-7h9-9-9-|
E -8--8--88--8--8-----8--8-8-----8---8-8-88--8--8--8---8-8-8---8-8-|
         mm                              mm

Riff 6A:

E ------------------------------------------------|
H ------------------------------------------------|
G ------/9--8------/9--8------/9--8--7--9-/17-10--|
D ------------------------------------------------|
A --2-2-/7--6--2-2-/7--6--222-/7--6--5--7-/15--8--|
E --0-0--------0-0--------000---------------------|
    m m        m m        mmm

E -----------------------------------------------|
H -----------------------------------------------|
G ------/9--8------/9--8------/9--8--7--9--5-10--|
D -----------------------------------------------|
A --2-2-/7--6--2-2-/7--6--2-2-/7--6--5--7--3--8--|
E --0-0--------0-0--------0-0--------------------|
    m m        m m        m m

E ------------------------------------------------|
H ------------------------------------------------|
G ------/9--8------/9--8------/9--8--7--9-/17-10--|
D ------------------------------------------------|
A --2-2-/7--6--2-2-/7--6--2-2-/7--6--5--7-/15--8--|
E --0-0--------0-0--------0-0---------------------|
    m m        m m        m m

E -----------------------------------------------|
H -----------------------------------------------|
G ------/9--8------/9--8------/9--8--7--9--5-----|
D --------------------------------------------3--|
A --2-2-/7--6--2-2-/7--6--222-/7--6--5--7--3-----|
E --0-0--------0-0--------000-----------------1--|
    m m        m m        mmm

E ------------------------------------------------|
H ------------------------------------------------|
G ------/9--8------/9--8------/9--8--7--9-/17-10--|
D ------------------------------------------------|
A --2-2-/7--6--2-2-/7--6--2-2-/7--6--5--7-/15--8--|
E --0-0--------0-0--------0-0---------------------|
    m m        m m        m m

E -----------------------------------------------|
H -----------------------------------------------|
G ------/9--8------/9--8------/9--8--7--9--5-10--|
D -----------------------------------------------|
A --2-2-/7--6--2-2-/7--6--2-2-/7--6--5--7--3--8--|
E --0-0--------0-0--------0-0--------------------|
    m m        m m        m m

E -------------------------------------------------|
H -------------------------------------------------|
G ----------------------------/12-11--7--9-/17--9--|
D ------------------/8--7--------------------------|
A --2-2-/9--8--2-2--------2-2---------5--7-/15--8--|
E --0-0--------0-0--------0-0----------------------|
    m m        m m        m m

E ------------------------------------------------|
H ------------------------------------------------|
G -----------------------------/12-11--7--9--5----|
D ------------------/8--7-----------------------3-|
A --2-2-/9--8--2-2--------2-2----------5--7--3----|
E --0-0--------0-0--------0-0-------------------1-|
    m m        m m        m m

Riff 6B:

E ---------------------------------------------------|
H -------/12-11------/12-11------12-11---------------|
G ---------------------------------------11-12-13-14-|
D --------/9--8-------/9--8------/9--8---------------|
A --2-2----------2-2---------222----------9-10-11-12-|
E --0-0----------0-0---------000---------------------|
    m m          m m         mmm

E ----------------------------------------------------|
H -------/12-11-------/12-11------/12-11--------------|
G ----------------------------------------11-12-13-14-|
D --------/9--8--------/9--8-------/9--8--------------|
A --2-2----------2-2----------2-2----------9-10-11-12-|
E --0-0----------0-0----------0-0---------------------|
    m m         m m           m m

E ----------------------------------------------------|
H -------/12-11-------/12-11------/12-11--------------|
G ----------------------------------------11-12-13-14-|
D --------/9--8--------/9--8-------/9--8--------------|
A --2-2----------2-2----------2-2----------9-10-11-12-|
E --0-0----------0-0----------0-0---------------------|
    m m          m m          m m

E ---------------------------------------------------|
H -------/12-11------/12-11------12-11---------------|
G ---------------------------------------11-12-13-14-|
D --------/9--8-------/9--8------/9--8---------------|
A --2-2----------2-2---------222----------9-10-11-12-|
E --0-0----------0-0---------000---------------------|
    m m          m m         mmm

E ---------------------------------------------------|
H ---------------------------------------------------|
G -------/9-8--------/12-11------/16-15--11-12-13-14-|
D ---------------------------------------------------|
A --2-2---------2-2---------2-2-----------9-10-11-12-|
E --0-0---------0-0---------0-0----------------------|
    m m         m m         m m

E ---------------------------------------------------|
H ---------------------------------------------------|
G -------/9-8--------/12-11------/16-15--11-12-13-14-|
D ---------------------------------------------------|
A --2-2---------2-2---------2-2-----------9-10-11-12-|
E --0-0---------0-0---------0-0----------------------|
    m m         m m         m m

Fill 1:

E -------------------------------------------------|
H -------------------------------------------4-----|
G -------------------5-------------------------5---|
D -------------7-4-----7-4-------------7-4-------7-|
A -3-----6-3-------6-------3-----6-3-------6-------|
E ---4-1-----4---------------4-1-----4-------------|

E -------------------------------------------------|
H -------------------------------------------------|
G -------------------5-----------------------------|
D -------------7-4-----7-4-------------7-4---------|
A -3-----6-3-------6-------3-----6-3-------6-3-----|
E ---4-1-----4---------------4-1-----4---------5-2-|

Fill 2:

E --------------------------------------------------|
H --------------------------------------------7-----|
G --------------------8-------------------------8---|
D -------------10-7----10-7------------10-7------10-|
A -6-----9-6--------9-------6----9-6--------9-------|
E ---7-4-----7---------------7-4-----7--------------|

E --------------------------------------------------|
H --------------------------------------------------|
G --------------------8-----------------------------|
D -------------10-7----10-7------------10-7---------|
A -6-----9-6--------9-------6----9-6--------9-6-----|
E ---7-4-----7---------------7-4-----7----------8-5-|

Outro 1:

E -------------------------------------------------|
H ----------12----------------------12-------------|
G -------12----12----------------12----12----------|
D ----16----------16----16----16----------16----16-|
A -14----------------14----14----------------17----|
E -------------------------------------------------|

E -------------------------------------------------|
H ----------12----------------------12-------------|
G -------12----12----------------12----12----------|
D ----16----------16----16----16----------16----16-|
A -15----------------15----10----------------15----|
E -------------------------------------------------|

Outro 2

E -------------------------------------------------------------|
H -------------------------------------------------------------|
G -------------------------------------------------------------|
D -7-----------------------------------------------------------|
A -9-----------------------------------------------------------|
E -7-----------------------------------------------------------|

E -------------------------------------------------------------|
H -------------------------------------------------------------|
G -------------------------------------------------------------|
D -9-----------------------------------------------------------|
A -10----------------------------------------------------------|
E -8-----------------------------------------------------------|


Song Structure:

(Where nothing else is indicated, Guitar 2 dubs guitar 1)

Guitar 1:     Guitar 2:    Guitar 3:

Riff 1A (x3)  Riff 1B (x3)
Riff 2  (x2)
Riff 3  (x2)
Riff 2  (x2)
Riff 4A (x2)
Riff 5A (x2)  Riff 5B (x2)
Prechorus A   Prechorus B
Chorus  (x2)
Riff 5A (x2)  Riff 5B (x2)
Riff 4A
Riff 4B       Riff 4C
Prechorus A   Prechorus B
Chorus  (x2)
Riff 6A       Riff 6B
Riff 3        Fill 1
Riff 3        Fill 1        Fill 2
Riff 4A (x4)
Riff 5A (x2)  Riff 5B (x2)
Prechorus A   Prechorus B
Chorus  (x4)
Chorus        Outro 1       Outro 2
Tap to rate this tab
# A B C D E F G H I J K L M N O P Q R S T U V W X Y Z