Song name
# A B C D E F G H I J K L M N O P Q R S T U V W X Y Z

Mercenary - Graveart tab

|       Graveart       |
|          By          |
|       Mercenary      |
|         From         |
|  First Breath "1989" |

Tuning: Tune all strings 4 halfsteps down to C, G, D#, A#, F, C.

Riff 1A

E --------------------------------------------------|
H --------------------------------------------------|
G ------10----10----10-14--------10----10----10-12--|
D ---12----12----12-----------12----12----12--------|
A -0------------------------0-----------------------|
E --------------------------------------------------|

E -----------------------------------------------------|
H -----------------------------------------------------|
G ------10----10----10-15--------10----10----15/17-14--|
D ---12----12----12-----------12----12----12-----------|
A -0------------------------0--------------------------|
E -----------------------------------------------------|

Riff 1B

E --------------------------------------------------------------------------|
H --------------------------------------------------------------------------|
G -----7---7-----10-------7---7-----9-------7---7-----10------7---7---12-9--|
D ---7---7---7-7--------7---7---7-7-------7---7---7-7-------7---7---7-------|
A -0------------------0-----------------0-----------------0-----------------|
E --------------------------------------------------------------------------|

Riff 2A

E ------------------------------------------------------------------------|
H ------------------------------------------------------------------------|
G -----10--10-----14-----12--10--12-------10--10-----12------15--14--12---|
D ---12--12--12-12--12-12--12--12--12---12--12--12-12--12-12---12--12--12-|
A -0----------------------------------0-----------------------------------|
E ------------------------------------------------------------------------|

E --------------------------------------------------------------------------|
H --------------------------------------------------------------------------|
G -----10--10-----15-----14--12--14-------10--10--15/17-14-----15--14--12---|
D ---12--12--12-12--12-12--12--12--12---12--12--12--------12-12--12--12--12-|
A -0----------------------------------0-------------------------------------|
E --------------------------------------------------------------------------|


Riff 2B

E --------------------------------------------------------------------|
H --------------------------------------------------------------------|
G -----7---7-----10-----9---7---9-------7---7-----9-----12---10---9---|
D ---7---7---7-7----7-7---7---7---7---7---7---7-7---7-7----7----7---7-|
A -0--------------------------------0---------------------------------|
E --------------------------------------------------------------------|

E --------------------------------------------------------------------|
H --------------------------------------------------------------------|
G -----7---7-----10-----9---7---9-------7---7---12-9-----9---8---7----|
D ---7---7---7-7----7-7---7---7---7---7---7---7------7-7---7---7---7--|
A -0--------------------------------0---------------------------------|
E --------------------------------------------------------------------|

Riff 3A:

E ------------------------------------------------------------------------------|
H ------------------------------------------------------------------------------|
G ------------------------------------------------------------------------------|
D -------------------------------------------------------------------------6----|
A ------5---5-----8--------5---5-----7--------5---5--------------5---5-----4----|
E --5-5---5---5-5------5-5---5---5-5------5-5---5---5-5-5----5-5---5---5-5-4----|
    m m   m   m m      m m   m   m m      m m   m   m m      m m   m   m m

Riff 3B


E ------------------------------------------------------------------------|
H ------------------------------------------------------------------------|
G -----7---7---7-10-------7---7---9--------7---7---7---------7---7---7----|
D ---7---7---7----------7---7---7--------7---7---7---3-----7---7---7---2--|
A -0------------------0----------------0-----------------0----------------|
E ---------------------------------------------------1-----------------0--|

Riff 4A:

E -----------------------------------------------------------------|
H -----------------------------------------------------------------|
G -----------------------------------------------------------------|
D ----------------7---5---5---7-7-----------------8---7---5-----5--|
A ------8---8---------------------------8---8-----------------8----|
E --5-5---5---5-5---5---5---5-----5-5-5---5---5-5---5---5---5------|
    m m   m   m m   m   m   m     m m m   m   m m   m   m   m

Riff 4B:

E -----------------------------------------------------------------|
H -----------------------------------------------------------------|
G -----------------------------------------------------------------|
D ------------------------------------------------5----------------|
A ------5---5-----8---7---7---8-8-------5---5---------8---7---5-7--|
E --5-5---5---5-5---5---5---5-----5-5-5---5---5-5---5---5---5------|
    m m   m   m m   m   m   m     m m m   m   m m   m   m   m

Riff 4C:

E ------------------------------------------------------------------|
H ------------------------------------------------------------------|
G ------------------------------------------------------------------|
D ----------------7---5---5---7-7-----------------8---7-------------|
A ------8---8---------------------------8---8---------------7-5-3-2-|
E --5-5---5---5-5---5---5---5-----5-5-5---5---5-5---5---5-8---------|
    m m   m   m m   m   m   m     m m m   m   m m   m   m

Riff 4D:

E ------------------------------------------------------------------|
H ------------------------------------------------------------------|
G ------------------------------------------------------------------|
D ------------------------------------------------5---------5-3-2---|
A ------5---5-----8---7---7---8-8-------5---5---------8---7-------5-|
E --5-5---5---5-5---5---5---5-----5-5-5---5---5-5---5---5-----------|
    m m   m   m m   m   m   m     m m m   m   m m   m   m

Bridge A:

E ----------------------------------------|
H ----------------------------------------|
G ----------------------------------------|
D ----------------------------------------|
A --2---------5---------5---------3-------|
E --3---------3---------1---------1-------|

Bridge B:

(mute all)

E ----------------------------------------------------------------|
H ----------------------------------------------------------------|
G ----------------------------------------------------------------|
D ----------------------------------------------------------------|
A --2-2-2-222-2-222-2-2-2-222-222-555-5-5-555-55555-5-5-5-555-555-|
E --3-3-3-333-3-333-3-3-3-333-333-333-3-3-333-33333-3-3-3-333-333-|

E ------------------------------------------------------------------|
H ------------------------------------------------------------------|
G ------------------------------------------------------------------|
D ------------------------------------------------------------------|
A --555-5-5-555-55555-5-5-5-555-555-333-3-3-333-33333-3-3-3-333-333-|
E --111-1-1-111-11111-1-1-1-111-111-111-1-1-111-11111-1-1-1-111-111-|

Bridge C:


E ---------------------------------------------------------|
H ---------------------------------------------------------|
G -4---4---4-4---4-4-4---4-4-/-7---7---7-7---7-7-7/12-11---|
D ---------------------------------------------------------|
A -2---2---2-2---2-2-2---2-2-/-5---5---5-5---5-5-5/10--9---|
E ---------------------------------------------------------|

E --------------------------------------------------------|
H --------------------------------------------------------|
G -7---7---7-7---7-7-7/12-11-5---5---5-5---5-5-5-5-5-5-5--|
D --------------------------------------------------------|
A -5---5---5-5---5-5-5/10--9-3---3---3-3---3-3-3-3-3-3-3--|
E --------------------------------------------------------|


E ---------------------------------------------------------|
H ---------------------------------------------------------|
G -4---4---4-4---4-4-4---4-4-/-7---7---7-7---7-7-7/12-11---|
D ---------------------------------------------------------|
A -2---2---2-2---2-2-2---2-2-/-5---5---5-5---5-5-5/10--9---|
E ---------------------------------------------------------|

E ---------------------------------------------------------------------|
H ---------------------------------------------------------------------|
G -14---14---14-14---14-14-14-14/12-12/11-5---5---5-5---5-5-5-5-5-5-5--|
D ---------------------------------------------------------------------|
A -12---12---12-12---12-12-12-12/10-10/9--3---3---3-3---3-3-3-3-3-3-3--|
E ---------------------------------------------------------------------|


Bridge D:

E ----------------------------------------|
H ----------------------------------------|
G ----------------------------------------|
D ---5------5----7--5--3------3----7--3---|
A ----------------------------------------|
E ---3------3----5--3--1------1----5--1---|


Song Structure

Guitar 1:     Guitar 2:    Guitar 3:     Guitar 4:
   -		 -    	   Riff 1A       Riff 1B
   -		 -  	   Riff 2A       Riff 2B
Riff 3A (x2)  Riff 3B (x2) Riff 2A (x2)  Riff 2B (x2)
Riff 4A (x2)  Riff 4B (x2)    -             -
Riff 2A       Riff 2B         -             -
Riff 4A (x3)  Riff 4B (x3)    -             -
Riff 4C       Riff 4D         -             -
Bridge A      Bridge A        -             -
Bridge B      Bridge C        -             -
Bridge D      Bridge ???      -             -
Riff 4A (x2)  Riff 4B (x2)    -             -
Riff 3A       Riff 3B      Riff 2A       Riff 2b
Tap to rate this tab
# A B C D E F G H I J K L M N O P Q R S T U V W X Y Z