Song name
# A B C D E F G H I J K L M N O P Q R S T U V W X Y Z

Mercenary - Symbiotic tab

Living sacrifice
Symbiotic
Conceived in Fire

A
e---------------------------------------------|
b---------------------------------------------|
g---------------------------------------------|
d---------------------------------------------|
a-2-2--4-5------------------------------------|
E-2-2--4-5------------------------------------|
H-0-0--2-3------------------------------------|

B
e----------------------------------------------|
b----------------------------------------------|
g----------------------------------------------|
d----------------------------------------------|
a----------------------------------------------|
E----------------------------------------------|
H-2p0--3p0--3p0--3p0-3p0-3p0-------------------|

C
e----------------------------------------------|
h----------------------------------------------|
g----------------------------------------------|
d----------------------------------------------|
a----------------------------------------------|
E-------8--7--8-7-8----------------------------|
H-4h5-5--5--5--5-5-5---------------------------|

D
e----------------------------------------------|
h----------------------------------------------|
g----------------------------------------------|
d----------------------------------------------|
a-0-2-3-2-2222-2222----------------------------|
E----------------------------------------------|
H----------------------------------------------|

E
e----------------------------------------------|
h----------------------------------------------|
g----------------------------------------------|
d----------------------------------------------|
a-2-4-5-4-4444-4444----------------------------|
E-2-4-5-4-4444-4444----------------------------|
H-0-2-3-2-2222-2222----------------------------|

Songorder

Ax8
Bx8
Cx8
Ax8
Bx8
Cx8
Ax8
Dx8
Ex16
Ax8
Bx20
Dx4
Ex4

Thats about it, sorry I couldīnt figure out the solo
sometimes he makes a few alternatives in the riffs but this is the basic in the song, have fun
God bless

Tabbed by Jonas Lykke Olesen from Denmark
Tap to rate this tab
# A B C D E F G H I J K L M N O P Q R S T U V W X Y Z