Song name
# A B C D E F G H I J K L M N O P Q R S T U V W X Y Z

Mercenary - World Wide Weep tab

|    World Wide Weep   |
|          By          |
|       Mercenary      |
|         From         |
|  First Breath "1998" |


Tuning: Tune all strings 4 halfsteps down to C, G, D#, A#, F, C.

Riff 1A

E --------------------------------------------------------------|
H --------------------------------------------------------------|
G --------------------------------------------------------------|
D --------------------------------------------------------------|
A -22---------------2222----------22---------------2222---------|
E -00-0-0h1h4-0h2h5-0000-0h1h4-1--00-0-0h1h4-0h2h5-0000-0h5h8-8-|
   mm m             mmmm          mm m             mmmm

Riff 1B

(Chords in brackets fade in)

E --------------------------------------------------------------|
H --------------------------------------------------------------|
G --------------------------------------------------------------|
D --------------------------------------------------------------|
A -22--(2)----------2222----------22--(2)----------2222---------|
E -00--(0)----------0000----------00--(0)----------0000---------|
   mm               mmmm          mm               mmmm

Riff 1C

E --------------------------------------------------------------|
H --------------------------------------------------------------|
G --------------------------------------------------------------|
D --------------------------------------------------------------|
A -22-----------------------------22----------------------------|
E -00-0-0h1h4-0h2h5-3333-0h1h4-4--00-0-0h1h4-0h2h5-3333-0h5h8-5-|
   mm m             mmmm          mm m             mmmm

Riff 2

E -----------------------------------------|
H -----------------------------------------|
G ----4-----4---4---4-----44-----2---2---2-|
D ----2-----2---2---2-----22-----3---3---3-|
A ----2-----2---2---2-----22-----5---5---5-|
E --0-0---0-0-0-0-0-0---0-00---0---0---0---|
    m     m   m   m     m      m   m   m


E -----------------------------------------|
H -----------------------------------------|
G ----4-----4---4---4-----44-----2---2---2-|
D ----2-----2---2---2-----22-----3---3---3-|
A ----2-----2---2---2-----22-----5---5---5-|
E --0-0---0-0-0-0-0-0---0-00---0---0---0---|
    m     m   m   m     m      m   m   m

E -----------------------------------------|
H -----------------------------------------|
G ------4---4---4---4-----44-----2---2---2-|
D ------2---2---2---2-----22-----3---3---3-|
A ------2---2---2---2-----22-----5---5---5-|
E --0-0-0-0-0-0-0-0-0---0-00---0---0---0---|
    m m   m   m   m     m      m   m   m

E -----------------------------------------|
H -----------------------------------------|
G ----4-----4---4---4-----44-----2---2---2-|
D ----2-----2---2---2-----22-----3---3---3-|
A ----2-----2---2---2-----22-----5---5---5-|
E --0-0---0-0-0-0-0-0---0-00---0---0---0---|
    m     m   m   m     m      m   m   m

Riff 3A

E ------------------------------------------|
H ------------------------------------------|
G ------------------------------------------|
D -------/9-5----/8-4-5------/9-5----/8-5-7-|
A --2-------------------2-------------------|
E --0--0-/7-3--0-/6-2-3-0--0-/7-3--0-/6-3-5-|
       m       m           m       m

E ----------------------------------------------|
H ----------------------------------------------|
G ----------------------------------------------|
D -------/9-5----/8-4-5------/9-8---------------|
A --2-------------------2------------3-2-----3--|
E --0--0-/7-3--0-/6-2-3-0--0-/7-6--0-----5-3-1--|
       m       m           m       m m m m m

Riff 3B???

E -------------------------------------------|
H -------------------------------------------|
G -------/9-5---/10-3-7-------/9-5---/10-3-5-|
D -------------------------------------------|
A --2----/7-3----/8-1-5--2----/7-3----/8-1-3-|
E --0--0-------0---------0--0-------0--------|
       m       m            m       m

E ----------------------------------------------|
H ----------------------------------------------|
G -------/9-5---/10-3-7-------/9-7--------------|
D ------------------------------------2---------|
A --2----/7-3----/8-1-5--2----/7-5------5-3-2-3-|
E --0--0-------0---------0--0-------0---------1-|
       m       m            m       m m m m m

Fill 1

E --------------------------------------------------------|
H --------------------------------------------------------|
G --------------------------------------------------------|
D --------------------------------------------------------|
A --22-2-------------2222------------------------------2--|
E --00-0-0h1h4-0h2h5-0000-0h1h4-1--000000000-000000000-0--|
    mm m             mmmm          mmmmmmmmm mmmmmmmmm >

Riff 1D

E --------------------------------------------------------------|
H --------------------------------------------------------------|
G --9-----/12--4---5--------------------------------------------|
D --------------------------------------------------------------|
A --7-----/10--2---3--2-4-5-4-2-4-5-4-2-4-5-4-2-4-5-4-2-----2---|
E --------------------------------------------------------------|
                      m m m m m m m m m m m m m m m m m    a.h.

Riff 5A:

(acoustic guitar)

E ------------------------------------------------------------------|
H ------------------------------------------------------------------|
G --------0---------------2---------------3---------------5---------|
D ------0---0-----------0---0-----------0---0-----------0---0-------|
A ----1-------1---1---3-------3---3---1-------1---1---3-------3---3-|
E --3-----------3---1-----------1---3-----------3---5-----------5---|

E ------------------------------------------------------------------------|
H ----------------------------------------1-------------------------------|
G --------3---------------2-------------0---0--------------0---------0----|
D ------0---0-----------0---0---------1-------1---1------0---0-------0----|
A ----1-------1---1---3-------3---3-3-----------3------1-------1---1-1----|
E --3-----------3---1-----------1--------------------3-----------3---3----|

Riff 5B:

E -----------------------------------------------------------------|
H -----------------------------------------------------------------|
G -----------------------------------------------------------------|
D -----------------------------------------------------------------|
A -1---------------0---------------1---------------3---------------|
E -3-3-3-3-3-3-3-3-1-1-1-1-1-1-1-1-3-3-3-3-3-3-3-3-5-5-5-5-5-5-5-5-|
     m m m m m m m   m m m m m m m   m m m m m m m   m m m m m m m

E --------------------------------------------------------------------------------|
H --------------------------------------------------------------------------------|
G --------------------------------------------------------------------------------|
D ---------------------------------1----------------------------------------------|
A -1---------------0---------------3-3-3-3-3-3-3-3-5------------------5--5--5--5--|
E -3-3-3-3-3-3-3-3-1-1-1-1-1-1-1-1-----------------3-3-3-3-3-3-3-3-3--3--3--3--3--|
     m m m m m m m   m m m m m m m   m m m m m m m   m m m m m m m

Riff 5C:

E -----------------------------------------------------------------|
H -----------------------------------------------------------------|
G -----------------------------------------------------------------|
D -----------------------------------------------------------------|
A -1-----------1---0-----------0---1-----------1---3-----------3---|
E -3-3-3-3-3-3---3-1-1-1-1-1-1---1-3-3-3-3-3-3---3-5-5-5-5-5-5---5-|
     m m m m         m m m m         m m m m         m m m m

E ---------------------------------------------------------------------------------|
H ---------------------------------------------------------------------------------|
G ---------------------------------------------------------------------------------|
D ---------------------------------1-----------1-----------------------------------|
A -1-----------1---0-----------0---3-3-3-3-3-3---3-5-----------1---1-----------1---|
E -3-3-3-3-3-3---3-1-1-1-1-1-1---1-----------------3-3-3-3-3-3---3-3-3-3-3-3-3---3-|
     m m m m         m m m m         m m m m         m m m m         m m m m

Song structure:

(you guessed it, where nothing else is indicated, guitar 2 dubs guitar 1)

Guitar 1:    Guitar 2:

Riff 1A (x2) Riff 1B (x2)
Riff 1A (x2)
Riff 1A (x2) Riff 1C (x2)
Riff 2
Riff 3A (x2) Riff 3B (x2)
Riff 1A      Riff 1B
Riff 1A (x3) Theme A
Fill 1
Riff 2
Riff 3A (x2) Riff 3B (x2)
Riff 1B
Riff 1A (x4) Theme B
Riff 5A (x2)
Riff 5B
Riff 5C (x2)
Riff 2
Riff 3A (x2) Riff 3B (x2)
Riff 1B
Riff 1A (x3) Theme A
Fill 1
Tap to rate this tab
 
# A B C D E F G H I J K L M N O P Q R S T U V W X Y Z