Song name
# A B C D E F G H I J K L M N O P Q R S T U V W X Y Z

Merchandise - Anxietys Door tab

I've tabbed this in half step down  because this little solo/lead/melody/whatever is  
easier to play in that tuning and it goes like this


INTRO.

Guitar 1:
Eb|-----------------------------------|
Bb|--------------6--------------------|
Gb|---0---5--7--------7---5-7-5-4-0---| x4
Db|-----------------------------------|
Ab|-----------------------------------|
Eb|-----------------------------------|

Guitar 2 is actually just playing chords
F# F# A E


VERSE (lyrics can be misheard, sorry 'bout that)

F#
Some things are never really there
A                                E
I walk the street at night yeah, I drink the perfumed air
F#
With no chains on my heart its so easy to be free
A                        E
In the city I live yeah, old men sleep in the road next to me

(and so on)

CHORUS

D                 F#m
You could have it all dear
       E                      B
all the lovely clothes and what no one knows yeah
D                      F#m
But don't think you can disappear
        E                   B
When the tide comes after you yeah that's what it do

then play intro, verse, chorus again and again.


Still this little solo can be played in standard tuning but it's little tricky and you 
can play it different ways.

like this

E|-----------------------------------|
B|--------------5--------------------|
G|-------4--6--------6---4-6-4-3-----|
D|--4----------------------------4---|
A|-----------------------------------|
E|-----------------------------------|


or like that

E|--------------0--------------------|
B|-------0--2--------2---0-2-0-------|
G|-----------------------------3-----|
D|--4----------------------------4---|
A|-----------------------------------|
E|-----------------------------------|


yeah, tab looks kinda odd but it's pretty accurate.
Tap to rate this tab
# A B C D E F G H I J K L M N O P Q R S T U V W X Y Z