Song name
# A B C D E F G H I J K L M N O P Q R S T U V W X Y Z

Merchandise - Become What You Are tab

Here's intro riff/bass line with chords over them:

       B        C#m     E          /C#m G#m   
E|--------------------------------------------|
B|--------------------------------------------|
G|--------------------------------------------|
D|--------------------------------------------|
A|------2------2-4---2-2/7-7-7-7-7/6-/4-------|
E|--2-4-----4---------------------------4-----|

   F#   B       C#m            E
E|--------------------------------------------|
B|--------------------------------------------|
G|--------------------------------------------|
D|--------------------------------------------|
A|------2-----2-4-----4-4-2-------------------|
E|--2-4-----4------------------0--------------|

I play these chords something like this during the intro but you can play around 
with different positions:

   B          C#m     E   C#mG#m  
E|-0-----------0------x---x--4--|
B|-0-----------5------9---5--4--|
G|-8^9^8^9^8---6------9---6--4--|
D|-9-----------6------9---6--6--|
A|-9-----------4------7---4--6--|
E|-7-----------4------x---x--4--|

   F#  B          C#m  B  E   
E|-2---0-----------x---x--0~---|
B|-2---0-----------5---4--0~---|
G|-3---8^9^8^9^8---6---4--1~---|
D|-4---9-----------6---4--2~---|
A|-4---9-----------4---2--2~---|
E|-2---7-----------x---x--0~---| 

During the verses, the guitarist kind of improvises around this chords:

           B     C#m
The music started
     E           (C#m) G#m   
I realized it was all a lie
(F#)   B                 C#m   B        E 
The guitars were ringing out last year's punk    
           B           C#m
No I couldn't bear the burden
     E       (C#m) G#m   
So I threw it all away
(F#) B              C#m            E
I left my home and all my friends behind, yeah
   G#m     F#   E
Oh make me young again
  B                                   F#
I found some way to mend this broken heart
             G#m        F#           E
But it don't want me singing about love anymore
        B                         F#
It just wants to sleep out in the park
                    E           F#
But it don't really matter what I say
                    E           F#
You're just going to twist it anyway
                    E           F#
Do you even listen to my words?
                    E           F#         B
You just want to memorize the chords

(solo over the intro chords)

           B     C#m
I'm alone again because
     E           (C#m) G#m   
All I really want's the truth
F#    B                     C#m  B   E
It's so rare to find that anywhere these days
F#    B                     C#m  (B)   E
An honest arrow caught my shoulder
     E           (C#m) G#m   
in a sea of New York curves
(F#)    B            C#m  (B)   E
I'll try to play the part of celebrity
        G#m   F#  E
And it's a headache to walk that way
      B                           F#
I was dressed up in all the wrong clothes
              G#m F#  E
Oh do you remember, what you were last year?
          B                  F#
Do you remember your former roles?
                      E        F#
But it don't seem to matter who I am 
                      E        F#
No one seems to want to understand that
                  E        F#
I'm my mother's son, I'm a rolling stone
                  E        F#       (slow down)
I don't want anything I have to own 

F# E F# (repeat forever)

Help me run and hide baby
Help me run and hide
From the rest of the world

Help me run and hide baby
Help me run and hide
I'm terrified baby yeah
Tap to rate this tab
# A B C D E F G H I J K L M N O P Q R S T U V W X Y Z