Song name
# A B C D E F G H I J K L M N O P Q R S T U V W X Y Z

Mercy Arms - Half Right tab

Standard tuning. The intro goes something like this:
e|------------------------|
B|------------------------|
G|------------------------|
D|------------------------|
A|------------------------|
E|---0---1/2----2/5-----0-|


The melody goes like this
e|---------------------------9-9---7--9----12---9--7--9--------------|
B|-5-5---7---9---5---7---9-------------------------------------------|
G|-------------------------------------------------------------------|
D|-------------------------------------------------------------------|
A|-------------------------------------------------------------------|
E|-------------------------------------------------------------------|


e|--------------7-----7-------------------7--------------------------|
B|-5---7---9-------9------9---5---7---9-------9---7---5--------------|
G|-------------------------------------------------------------------|
D|-------------------------------------------------------------------|
A|-------------------------------------------------------------------|
E|-------------------------------------------------------------------|


e|---------------------------9-9---7--9----12---9--7--9--------------|
B|---5---7---9---5---7---9-------------------------------------------|
G|-------------------------------------------------------------------|
D|-------------------------------------------------------------------|
A|-------------------------------------------------------------------|
E|-------------------------------------------------------------------|


e|--------------12-11---------12-11----------12-11-------------------|
B|---12---9------------12-9----------12--9----------12---9---7---5---|
G|-------------------------------------------------------------------|
D|-------------------------------------------------------------------|
A|-------------------------------------------------------------------|
E|-------------------------------------------------------------------|

little instrumental solo, follows same melody as most of the song but above the twelfth fret.

e|----12--14---16--------12--14--16--19--|
B|---------------------------------------|
Tap to rate this tab
 
# A B C D E F G H I J K L M N O P Q R S T U V W X Y Z