Song name
# A B C D E F G H I J K L M N O P Q R S T U V W X Y Z

Mercy Drive - Burn In My Light tab

-------------------------------------------------------------------------------
                     Burning inside my light - Mercy Drive
-------------------------------------------------------------------------------
Tabbed by: mike_rocka_boy
Email: mike_pearsall@hotmail.com

Tuning: EADGBe


hey, well this is the first full song I've tabbed myself so I can't pretend that it's 
be 100% but it's fairly on track... have fun

Intro

e|-------------------------------------------------------------|
B|-------------------------------------------------------------|
G|-----8-6-6---444---6-4~-----------8--6-6----4---4-4--6-------|
D|4-4--8-6-6---444---6-4~------4-4--8--6-6----4---4-4--6-- ----| Clean
A|4-4--6-4-4---222---4-2~------4-4--6--4-4----2---2-2--4-------|
E|2-2------------------------- 2-2-----------------------------|

e|--------------------------------------------------------------|
B|--------------------------------------------------------------|
G|-----8-6-6---444---6-4~-----------8--6-6----4---4-4--6--------|
D|4-4--8-6-6---444---6-4~------4-4--8--6-6----4---4-4--6--- ----| Distorted
A|4-4--6-4-4---222---4-2~------4-4--6--4-4----2---2-2--4--------|
E|2-2--------------------------2-2------------------------------|


Chorus

e|---------------------------------------------------------|
B|---------------------------------------------------------|
G|---------------------------------------------------------|
D|---4-x-x-x-x-5-x-x-x-x--8-8--8--6--6--4------------------|
A|---4-x-x-x-x-5-x-x-x-x--8-8--8--6--6--4------------------|
E|---2-x-x-x-x-3-x-x-x-x--6-6--6--4--4--2------------------|

e|---------------------------------------------------------|
B|---------------------------------------------------------|
G|---------------------------------------------------------|
D|-6-6-6-6-8-----8----10------7-9-11-9-7-------------------|
A|-6-6-6-6-8-----8----10------7-9-11-9-7--x-x-x-x-x-x-x----|
E|-4-4-4-4-6-----6----8-------5-7-9--7-5--x-x-x-x-x-x-x----|

e|---------------------------------------------------------|
B|---------------------------------------------------------|
G|---------------------------------------------------------|
D|---444444444-5-x-x-x-x--8-8--8--6--6--4------------------|
A|---444444444-5-x-x-x-x--8-8--8--6--6--4------------------|
E|---222222222-3-x-x-x-x--6-6--6--4--4--2------------------|

e|---------------------------------------------------------|
B|---------------------------------------------------------|
G|---------------------------------------------------------|
D|-6-6-6-6-8-----8----10-----------------------------------|
A|-6-6-6-6-8-----8----10-----------------------------------|
E|-4-4-4-4-6-----6----8------------------------------------|


After chorus

Part 1

e|---------------------------------------------------------|
B|--17----14---15~---------17----14------------------------|
G|---------------------------------------------------------|
D|---------------------------------------------------------|
A|---------------------------------------------------------|
E|---------------------------------------------------------|


Part 2

e|---------------------------------------------------------|
B|---------------------------------------------------------|
G|-----8-6-6---444---6-4~-----------8--6-6----4---4-4--6---|
D|4-4--8-6-6---444---6-4~------4-4--8--6-6----4---4-4--6---|
A|4-4--6-4-4---222---4-2~------4-4--6--4-4----2---2-2--4---|
E|2-2--------------------------2--2------------------------|

Verse

e|----------------------------------------------------------|
B|----------------------------------------------------------|
G|----------------------------------------------------------|
D|-4-4-4-4-6-6-6-6------------------------------------------|
A|-4-4-4-4-6-6-6-6---64/6--64/6--64/6--64/6-----------------|
E|-2-2-2-2-4-4-4-4---42/4--42/4--42/4--42/4-----------------|

e|---------------------------------------------------------|
B|---------------------------------------------------------|
G|---------------------------------------------------------|
D|-4-4-4-4-6-6-6-6-x-x-x-x-x-x-x-x-x-x---------------------|
A|-4-4-4-4-6-6-6-6-x-x-x-x-x-x-x-x-x-x---------------------|
E|-2-2-2-2-4-4-4-4-x-x-x-x-x-x-x-x-x-x---------------------|


Chorus

e|---------------------------------------------------------|
B|---------------------------------------------------------|
G|---------------------------------------------------------|
D|---444444444-555555555--8-8--8--6--6--4------------------|
A|---444444444-555555555--8-8--8--6--6--4------------------|
E|---222222222-333333333--6-6--6--4--4--2------------------|

e|---------------------------------------------------------|
B|---------------------------------------------------------|
G|---------------------------------------------------------|
D|-6-6-6-6-8-----8----10-----------------------------------|
A|-6-6-6-6-8-----8----10-----------------------------------|
E|-4-4-4-4-6-----6----8------------------------------------|


Back to intro

e|--------------------------------------------------------|
B|--------------------------------------------------------|
G|-----8-6-6---444---6-4~-----------8--6-6----4---4-4--6--|
D|4-4--8-6-6---444---6-4~------4-4--8--6-6----4---4-4--6--|
A|4-4--6-4-4---222---4-2~------4-4--6--4-4----2---2-2--4--|
E|2-2------------------------- 2-2------------------------|


Bridge

e|----------------------------------------------------------|
B|----------------------------------------------------------|
G|----------------------------------------------------------|
D|-x-x-x-x-x-x-x-6-x-x-x-x-x-x-x108-------------------------|  x2
A|-x-x-x-x-x-x-x-6-x-x-x-x-x-x-x108-------------------------|
E|-x-x-x-x-x-x-x-4-x-x-x-x-x-x-x-86-------------------------|


Verse

e|----------------------------------------------------------|
B|----------------------------------------------------------|
G|----------------------------------------------------------|
D|-4-4-4-4-6-6-6-6------------------------------------------|
A|-4-4-4-4-6-6-6-6---64/6--64/6--64/6--64/6-----------------|
E|-2-2-2-2-4-4-4-4---42/4--42/4--42/4--42/4-----------------|

e|---------------------------------------------------------|
B|---------------------------------------------------------|
G|---------------------------------------------------------|
D|-4-4-4-4-6-6-6-6-x-x-x-x-x-x-x-x-x-x---------------------|
A|-4-4-4-4-6-6-6-6-x-x-x-x-x-x-x-x-x-x---------------------|
E|-2-2-2-2-4-4-4-4-x-x-x-x-x-x-x-x-x-x---------------------|


Chorus

e|---------------------------------------------------------|
B|---------------------------------------------------------|
G|---------------------------------------------------------|
D|---444444444-555555555--8-8--8--6--6--4------------------|
A|---444444444-555555555--8-8--8--6--6--4------------------|
E|---222222222-333333333--6-6--6--4--4--2------------------|

e|---------------------------------------------------------|
B|---------------------------------------------------------|
G|---------------------------------------------------------|
D|-6-6-6-6-8-----8----10-----------------------------------|
A|-6-6-6-6-8-----8----10-----------------------------------|
E|-4-4-4-4-6-----6----8------------------------------------|


e|---------------------------------------------------------|
B|---------------------------------------------------------|
G|---------------------------------------------------------|
D|---444444444-555555555--8-8--8--6--6--4------------------|
A|---444444444-555555555--8-8--8--6--6--4------------------|
E|---222222222-333333333--6-6--6--4--4--2------------------|

e|---------------------------------------------------------|
B|---------------------------------------------------------|
G|---------------------------------------------------------|
D|-6-6-6-6-8-----8----10-----------------------------------|
A|-6-6-6-6-8-----8----10-----------------------------------|
E|-4-4-4-4-6-----6----8------------------------------------|


Outro

e|-10-12--8-10-7-8-6-7-5-6----------------------------------|
B|----------------------------------------------------------|
G|----------------------------------------------------------|
D|----------------------------------------------------------|     x3
A|----------------------------------------------------------|
E|----------------------------------------------------------|

e|----------------------------------------------------------|
B|-10-12-8-10-12-8-10-12-8-10-12-8--------------------------|
G|----------------------------------------------------------|
D|----------------------------------------------------------|
A|----------------------------------------------------------|
E|----------------------------------------------------------|
Tap to rate this tab
# A B C D E F G H I J K L M N O P Q R S T U V W X Y Z