Guitaretab - guitar tabs
Song name
# A B C D E F G H I J K L M N O P Q R S T U V W X Y Z

Mercy Me - Blink Of An Eye tab

i got this song like perfectly right.
good song

*= palm mute
#= choke

intro- (acoustic) chords

 G   A   Bm

Verse- repeat 4x
E-------------------------------------------------|
B-------------------------------------------------|
G-------------------------------------------------|
D-555-777-9-9999999----555-777-9-9-9-9--5~--------|
A-555-777-9-9999999----555-777-9-9-9-9--5~--------|
E-333-555-7-7777777----333-555-5-5-5-5--3~--------|
  *** ***   *******    *** ***   # # #

[ Tab from: http://www.guitaretab.com/m/mercy-me/149836.html ]
Chorus- repeat 2x                              play after 2nd time
E--------------------------------------------/-------------------------|
B--------------------------------------------/-------------------------|
G-77777777-----------------------------------/-------------------------|
D-77777777-77777777-55555555-77777777--------/-5555555-7~--------------|
A-55555555-77777777-55555555-77777777--------/-5555555-7~--------------|
E----------55555555-33333333-55555555--------/-3333333-5~--------------|


same verse

same chorus


Bridge
E------------------------------------------------------------------------------|
B------------------------------------------------------------------------------|
G-7777777777777777-------------------------------------------------------------|
D-7777777777777777-777777777777777-555555555555555-555-777-99999999-555-777-9~-|
A-5555555555555555-777777777777777-555555555555555-555-777-99999999-555-777-9~-|
E------------------555555555555555-333333333333333-333-555-77777777-333-555-7~-|

play chorus a couple times then done
Related for Blink Of An Eye tab
Advertisement will be closed in 10 seconds