Song name
# A B C D E F G H I J K L M N O P Q R S T U V W X Y Z

Mercy Me - House Of God tab

Tabbed by:
Email:

Tuning:DADGBE

intro 4 times (DISTORTED)
e|-----------------------------------------------------------------------------|
B|-----------------------------------------------------------------------------|
G|---0~~~~~--------------------------------------------------------------------|
D|------------2----/5\2/5\2----------------------------------------------------|
A|------------2--------------4~-5~---------------------------------------------|
E|------------2----------------------------------------------------------------|
VERSE-(Let all chords ring and use a tremolo effect)I THINK ITS RIGHT
e|-----0-----0-----0-----0-----0-----0-----0-----0-----------------------------|
B|-----0-----0-----0-----0-----0-----0-----0-----0-----------------------------|
G|-----9-----6-----7-----9-----6-----4-----4-----6-----------------------------|
D|-----------------------------------------------------------------------------|
A|-----7-----4-----5-----7-----4-----2-----2-----4-----------------------------|
E|-----------------------------------------------------------------------------|
CHORUS-(DISTORTED)
e|----------------------------------------------------------------------------|
B|----------------------------------------------------------------------------|
G|---------------------6~---7~------------------------------------------------|
D|------2----/5\2/5\2--x----x-------------------------------------------------|
A|------2--------------4-~--5~------------------------------------------------|
E|------2---------------------------------------------------------------------|

Do the verse and chorus and here is the pause


e|----------------------------------------------------------------------------|
B|----------------------------------------------------------------------------|
G|------9-----6-----4----9-----6-----4-----9----------------------------------|
D|----------------------------------------------------------------------------|
A|------7-----4-----2----7-----4-----2-----7------x--x------------------------|
E|------------------------------------------------x--x------------------------|

| /  slide up
| \  slide down
| ~  vibrato
| x  Mute note
Tap to rate this tab
# A B C D E F G H I J K L M N O P Q R S T U V W X Y Z