Song name
# A B C D E F G H I J K L M N O P Q R S T U V W X Y Z

Mercy Within Brutality - Sometime Before Never tab

-------------------------------------------------------------------------------
			     Sometime Before Never - Mercy Within Brutality
-------------------------------------------------------------------------------
Tabbed by: Teddynezz
Email: Teddynezz@aol.com
| /  slide up
| \  slide down
| h  hammer-on
| p  pull-off
| ~  vibrato
| *  harmonic
| x  Mute note
| #* Repeat start
| #! Repeat stop
Tuning: Drop D

Note: This Song Is Still In Progress. If You Have Any Tips That Will Help Us
Finish The Song Then E-Mail Me Or Message Me On Here Doesn't Matter To Me. The
Song Is In The Key Of E So The Solo Is A Little Hard To Make. We're Not To Fond
Of The E-Scale So Give Us Time. Please Any Helpful Hints Will Be Taken In To
Note. So In Due Time Fellow U.G. Users This Song Might Be Finished By My
Birthday. =P Enjoy! Happy Playings!!!

#*
e|------------------------------------------------------------------------------------|
B|------------------------------------------------------------------------------------|
G|------------------------------------------------------------------------------------|
D|------/4------2------4------2-(Let-Ring)--------------------------------------------|
A|-----------5------5------5----------------------------------------------------------|
E|-0--(Let-Ring)----------------------------------------------------------------------|

e|------------------------------------------------------------------------------------|
B|------------------------------------------------------------------------------------|
G|------------------------------------------------------------------------------------|
D|-----/4------2-------2-------0-(Let-Ring)-------------------------------------------|
A|----------5-------5------5----------------------------------------------------------|
E|-0--(Let-Ring)----------------------------------------------------------------| ----| x2

    #*                             #!x3
e|-------------------------------|------------------------------------------------------|
B|------------------------------|-------------------------------------------------------|
G|--------------2--------------|-------------------2--4---------------------------------|
D|-------2h4-----4--2------|------------2h4---------2-----------------------------------|
A|------------------------5------|--------------------------5-------------------| play--| x4
E|-0-0-------------------------|-----0-0------------------------------------------------|
Tap to rate this tab
# A B C D E F G H I J K L M N O P Q R S T U V W X Y Z