Song name
# A B C D E F G H I J K L M N O P Q R S T U V W X Y Z

Mercy Within Brutality - The Rose tab

-------------------------------------------------------------------------------
			     The Rose - Mercy Within Brutality
-------------------------------------------------------------------------------
Tabbed by:Teddynezz
Email:Teddynezz@aol.com

Tuning: Drop D
Order Played
Intro, Verse, Chorus, Verse, Chorus, Bridge, Solo, Chorus Outro
Intro:
The Begining Of The Intro Is A Muted Fade In Slightly Let Off Of The Mute Each
Time You Start Over On The Last Time Its No Mute
e|----------------------------------|
B|----------------------------------|
G|----------------------------------|x4
D|----------------------------------|
A|----------------------------------|
E|-0-0-12-0-7-8-7-10-7-8-7-5-7-5-0--|

e|---------------------------------|
B|---------------------------------|
G|---------------------------------|
D|---------------------------------|x4
A|-00-12-0-7h8p7-10-7h8p7-5h7p5-0--|
E|-00-12-0-7h8p7-10-7h8p7-5h7p5-0--|
Verse:
e|-------------------------------------------------------------------------------|
B|-------------------------------------------------------------------------------|
G|-------------------------------------------------------------------------------|
D|-------------------------------------------------------------------------------|
A|-0-00-00-00-00-5h6-6-00-00-00-00-5h6-8-00-00-00-00-6h8-9-00-00-00-00-10-8-6----|x2
E|-0-00-00-00-00-5h6-6-00-00-00-00-5h6-8-00-00-00-00-6h8-9-00-00-00-00-10-8-6----|
Chorus:
e|---------------------------------|
B|---------------------------------|
G|---------------------------------|
D|---------------------------------|x4
A|-00-12-0-7h8p7-10-7h8p7-5h7p5-0--|
E|-00-12-0-7h8p7-10-7h8p7-5h7p5-0--|
Bridge:
e|-------------------------------------------------------------------------------|
B|-------------------------------------------------------------------------------|
G|-------------------------------------------------------------------------------|
D|-------------------------------------------------------------------------------|
A|-------------------------------------------------------------------------------|
E|--0-000-000-000-000-000-000-000-000-000--000-000-000---------------------------|
solo: tremelo picking the frets are spaced so you know what they are

e|----------------------------------------------------7----5------------------7----|
B|-------------6----5------------6-----5-----5-555-------5-----5--555----5---------|
G|----5-555----5-----5-555------5--------------------------------------------------|
D|---------------------------------------------------------------------------------|
A|---------------------------------------------------------------------------------|
E|---------------------------------------------------------------------------------|

5--------------8-----7------------------|
6-666-----6-----------------------------|
------------------8-888-888-888-888-----|
----------------------------------------|
----------------------------------------|
----------------------------------------|

e|--------------4-5-7-5-4------------------------------------------------------------|
B|-------5-6---------------6-5-------------------------------------------------------|
G|-5-6--------------------------6-5~*------------------------------------------------|
D|-----------------------------------------------------------------------------------|
A|-----------------------------------------------------------------------------------|
E|-----------------------------------------------------------------------------------|

Chorus Outro
e|-------------------------------------|
B|-------------------------------------|
G|-------------------------------------|
D|-------------------------------------|x4
A|-00-12-0-7h8p7-10-7h8p7-5h7p5-0--00--|
E|-00-12-0-7h8p7-10-7h8p7-5h7p5-0--00--|

| /  slide up
| \  slide down
| h  hammer-on
| p  pull-off
| ~  vibrato
| *  harmonic
| x  Mute note
===============================================================================
Tap to rate this tab
# A B C D E F G H I J K L M N O P Q R S T U V W X Y Z