Song name
# A B C D E F G H I J K L M N O P Q R S T U V W X Y Z

Mercyful Fate - Room Of Golden Air tab

Mercyful Fate: Room Of Golden Air

transcribed by:  Langus          :  tlange@promail.pl
     edited by:  Russ Elton      :  webmaster@abysslord.com

FIND EVERY MERCYFUL FATE/KING DIAMOND SONG AND
THE MOST UPDATED VERSION OF THIS SONG AT:

                          The Tab Crypt
                  http://abysslord.com/thetabcrypt/

Date last modified:  October 30, 2003

PLEASE DO NOT COPY THIS TAB TO ANOTHER SITE
WITHOUT AUTHORS' PERMISSION.  THANK YOU.

Tuning: Standard

Intro
GUitar 1
e|-----|
B|-----|
G|-----|
D|--2--|
A|--0--|
E|-----|

GUitar 2
e|-----|
B|-----|
G|-----|
D|--5--|
A|--3--|
E|-----|



Riff 1      
e|---------------------------------------------|
B|---------------------------------------------|
G|-------0-----------------0-------------------|
D|-----0-----------------0---------------------|
A|---4------4-2--------4------4-2----2---------|
E|-2----------0----0-2----------0----0--0-2-3~-|
                                        * *  
       
Solo over riff 1 (Acoustic)
e|-----------------------------------------|
B|-----------------------------------------|
G|-----------------------------------------|
D|-7-5-4--4-5--4-5----4h5p4---4------4-5---|
A|--------------------------7---5h7------7-|
E|-----------------------------------------|

e|----------------------------------------------------------|
B|----------------7--7---7-8-7-8~~--7-8-10--8-7---7-8p7---7-|
G|-----------7-9--------------------------------9-------9---|
D|---4h5-7/9------------------------------------------------|
A|-7--------------------------------------------------------|
E|----------------------------------------------------------|

e|---------------|
B|-----7-8p7-----|
G|-8-9-------9~~-|
D|---------------|
A|---------------|
E|---------------|
 
End solo


Riff 2
Guitar 1
e|-------------------------------|
B|-------------------------------|
G|-------------------------------|
D|-4------2------5---5---4---4-2-|
A|-2------0----0-3---3-0-2---2-0-|
E|-------------------------------|
  
Guitar 2
e|-------------------------------|
B|-------------------------------|
G|-----4-----2-------5-------4---|
D|---4-----2-------5-------4---2-|
A|-2-----0-----0-3-----0-2-----0-|
E|-------------------------------|



Play Riff 1 w/ this over it (arranged for guitar):
e|------------|-7--7--7--7-5-4---|
B|-7-7---8--5-|----------------7-|
G|------------|------------------|
D|------------|------------------|
A|------------|------------------|
E|------------|------------------|

e|------------|--------5-4-------|
B|-7-7---8--5-|-5--5-7-----7-5---|
G|------------|------------------|
D|------------|------------------|
A|------------|------------------|
E|------------|------------------|



Riff 3 (Solo Rhythm)
e|---------------------------------------------|
B|---------------------------------------------|
G|---------------------------------------------|
D|-6--6-6-6-6-6--6-6-6-6-----------------------|
A|-4--4-4-4-4-4--4-4-4-4-5----------5----------|
E|-----------------------3--3-3-3-3-3--3-3-3-3-|
                            * * * *    * * * *


Riff 4 (Solo Rhythm)
e|------------------------------|
B|------------------------------|
G|------------------------------|
D|-4--4--------4-4--4-----------|
A|-4--4--------4-4--4-----------|
E|------000000--------000000000-|
        ******        *********
e|---------------------------------|
B|---------------------------------|
G|---------------------------------|
D|-4--4--------4-4--4--------------|
A|-4--4--------4-4--4--------------|
E|------000000--------000000-5-6-7-|
        ******        ****** * * * 
e|------------------------------|
B|------------------------------|
G|------------------------------|
D|-4--4--------4-4--4-----------|
A|-4--4--------4-4--4-----------|
E|------000000--------000000000-|
        ******        *********
e|--------------------------------|
B|--------------------------------|
G|--------------------------------|
D|-4--4--------4-4--4-------------|
A|-4--4--------4-4--4-----------5-|
E|------000000--------000000000-3-|
        ******        *********


Solo over the above riffs:
e|-21--------------------21-----------------|
B|---21\18-----------------21\18------------|
G|--------18--------------------18--18\16~~-|
D|----------18\15-----------------18--------|
A|---------------16~~-----------------------|
E|------------------------------------------|

e|-21--------------------21-----------------|
B|---21\18-----------------21\18------------|
G|--------18--------------------18--18------|
D|----------18\15-----------------18--17~~--|
A|---------------16~~-----------------------|
E|------------------------------------------|

e|-21--------------------21-----------------|
B|---21\18-----------------21\18------------|
G|--------18--------------------18--18\16~~-|
D|----------18\15-----------------18--------|
A|---------------16~~-----------------------|
E|------------------------------------------|

e|-21--------------------21-----------------|
B|---21\18-----------------21\18------------|
G|--------18--------------------18--18------|
D|----------18\15-----------------18--17~~--|
A|---------------16~~-----------------------|
E|------------------------------------------|

e|-15---15-----------------------------------|
B|-18^--18^~~----21^----21^----21-21^--------|
G|----------------------20^----20-20^--------|
D|-------------------------------------17~~\-|
A|-------------------------------------------|
E|-------------------------------------------|

e|------------------------------------12---------------------|
B|------------------------------------15^--(15)r-12-14-15h17-|
G|-7^----7^--7-7---------------------------------------------|
D|-----------------------------------------------------------|
A|-----------------------------------------------------------|
E|----------------0-0-0-0-0-0-(0-0-0)------------------------|

Guitar 1
e|-18-15---------15-------------------------------------------|
B|------17-17~~----17---------17------------------------------|
G|-------------------18-18~~----18-15-15~~--18-15-------------|
D|-----------------------------------------------17-17~~--17\-|
A|------------------------------------------------------------|
E|------------------------------------------------------------|

Guitar 2
e|-21-18---------18-------------------------------------------|
B|------20-20~~----20---------20------------------------------|
G|-------------------21-21~~----20-18-18~~--20-18-------------|
D|-----------------------------------------------20-20~~--20\-|
A|------------------------------------------------------------|
E|------------------------------------------------------------|

End Solo


Riff 5
e|--------------------------------|
B|--------------------------------|
G|--------------------------------|
D|--------------------------------|
A|---------7-5--------------7-5---|
E|-0-6-5-0-----6----0-6-5-0-----3-|
   * * * * * *      * * * * * * 


Riff 6 (Solo Rhythm)
e|------------------------------|
B|------------------------------|
G|------------------------------|
D|----4---2-4---------4---4-5---|
A|-2--2---2-2---3~----3---3-3---|
E|-0----0-----0-----0---0-----0-|
        *     *     *   *     *
e|-------------------------------|
B|-------------------------------|
G|-------------------------------|
D|-------4---4-2---------4---4---|
A|-4~----4---4-4---3~----3---3---|
E|-----0---0-----0-----0---0---3-|
       *   *     *     *   *
e|------------------------------|
B|------------------------------|
G|------------------------------|
D|----4---2-4---------4---4-5---|
A|-2--2---2-2---3~----3---3-3---|
E|-0----0-----0-----0---0-----0-|
        *     *     *   *     *
e|---------------------------------|
B|---------------------------------|
G|---------------------------------|
D|-------4---4-2---------4---4-----|
A|-4~----4---4-4---3~----3---3-----|
E|-----0---0-----0-----0---0---3-2-|
       *   *     *     *   *   * *

Final time:
e|---------------------------------|
B|---------------------------------|
G|---------------------------------|
D|-------4---4-2-------------------|
A|-4~----4---4-4---3~--------7-5---|
E|-----0---0-----0-----6-5-0-----6-|
       *   *     *     * * * * *


Solo
e|---------------------7h8p7---7------7-8-10-8p7---7h8p7---7-------|
B|-7-8-7--(7)-8p7-----------10---8-10-----------10------10--10-8p7-|
G|-----------------------------------------------------------------|
D|----------------9~~----------------------------------------------|
A|-----------------------------------------------------------------|
E|-----------------------------------------------------------------|

e|---------------------------------------------------------------------|
B|---7-8p7---7-----7-8-10p8p7--7-------------------12-13-12---12-------|
G|-9-------9---8h9-----------9---9~~\---------12-14--------14---14^r~~-|
D|---------------------------------------9/14--------------------------|
A|---------------------------------------------------------------------|
E|---------------------------------------------------------------------|

e|-----------------------------------------------------------|
B|-----------------------------------------12-13p12--12------|
G|-12-14-12h14p12-11-12-----------11-12-14---------14--12-14-|
D|---------------------14~~--12-14---------------------------|
A|-----------------------------------------------------------|
E|-----------------------------------------------------------|

e|---------12----------14-15-----14-15----------------------------|
B|-12-13-15--15^~~\--17-----17^-------17~~---19-20-21-22^~~~--22^-|
G|----------------------------------------------------------------|
D|----------------------------------------------------------------|
A|----------------------------------------------------------------|
E|----------------------------------------------------------------|

e|-19-20----19-------19-20-22----22^r--22^r------------------|
B|-------22----20-22---------------------------x-15-----17~~-|
G|---------------------------------------------x-14^---------|
D|-----------------------------------------------------------|
A|-----------------------------------------------------------|
E|-----------------------------------------------------------|

e|----------------------19-20--19------|
B|-19-20-22-22^~~--22^-------22--22-20-|
G|-------------------------------------|
D|-------------------------------------|
A|-------------------------------------|
E|-------------------------------------|

e|----------------------19-----------|
B|-19----19-20-19----19--------------|
G|----21----------21--------20^r^~~\-|
D|-----------------------------------|
A|-----------------------------------|
E|-----------------------------------|

End Solo


Play Riff 2


Riff 7 (Solo Rhythm)
e|----------------------------------|
B|----------------------------------|
G|----------------------------------|
D|----------------------------------|
A|---4-4---5-5----4-4---5-5---4-4-4-|
E|-0-2-2-0-3-3--0-2-2-0-3-3-0-2-2-2-|
   * * * * * *  * * * * * * * * * *

Riff 8 (Solo Rhythm)
e|----------------------------------|
B|----------------------------------|
G|----------------------------------|
D|----------------------------------|
A|-2-4-4-2-5-5--2-4-4-2-5-5-2-4-4-4-|
E|----------------------------------|

Riff 9 (Solo Rhythm)
e|-------------------------------|
B|-------------------------------|
G|-------------------------------|
D|----------3--------------------|
A|----------1--------------------|
E|-0-2-3-0-------0-2-3-0-6-5-4-3-|
   * * * *       * * * * * * * *


Solo
Guitar 1
e|-8-5---5------------------------------|
B|-----7---7---7------------------------|
G|-----------8---8-5-8-5----------------|
D|-----------------------7-4--------/10-|
A|--------------------------------------|
E|--------------------------------------|

e|-------------------------------/7------|
B|-----------------------------8-----9~~-|
G|-------11---10-11-9--------9-----------|
D|-10-13----9---------12-9-8-------------|
A|---------------------------------------|
E|---------------------------------------|

e|------------------------------------------------|
B|-17----------17-16---------17----------17-16~~--|
G|----16-14-17-------15~~-------16-14-17----------|
D|------------------------------------------------|
A|------------------------------------------------|
E|------------------------------------------------|

e|-----------------------------------------------|
B|-17----------17-16---------17----------17-16~~-|
G|----16-14-17-------15~~-------16-14-17---------|
D|-----------------------------------------------|
A|-----------------------------------------------|
E|-----------------------------------------------|

Guitar 2
e|-17-14----14-----------------------------|
B|-------16----16----18--------------------|
G|----------------17----17-14-17-14--------|
D|----------------------------------16--13-|
A|-----------------------------------------|
E|-----------------------------------------|

e|-------------------------------------/11-------|
B|----------------------------------12------12~~-|
G|-------14----13-14-12----------12--------------|
D|-13-16----12----------15-12-11-----------------|
A|-----------------------------------------------|
E|-----------------------------------------------|

e|-15-------12-15-14---------15-------12-15-14~~-|
B|----15-13----------14~~-------15-13------------|
G|-----------------------------------------------|
D|-----------------------------------------------|
A|-----------------------------------------------|
E|-----------------------------------------------|

e|-15-------12-15-14---------15-------12-15-14~~-|
B|----15-13----------14~~-------15-13------------|
G|-----------------------------------------------|
D|-----------------------------------------------|
A|-----------------------------------------------|
E|-----------------------------------------------|

Both Guitars
e|-------------13-14-------------|
B|-------14-15-------------------|
G|-13-14--------------16-15-14~~-|
D|-------------------------------|
A|-------------------------------|
E|-------------------------------|

Guitar 1        Guitar 2
e|--------------|---------------|
B|---------12^r-|----------15^r-|
G|------10------|-------13------|
D|-12-9---------|-15-12---------|
A|--------------|---------------|
E|--------------|---------------|

Both Guitars
e|---------9---------------------------------------------------|
B|-9-10-12---12-10-9---------------10-9-----------10-9---------|
G|---------------------------11-10------10-11~~--------10------|
D|-------------------9-11-12------------------------------11~~-|
A|-------------------------------------------------------------|
E|-------------------------------------------------------------|

e|--7---7---7---6-----------7---7---7---9----|
B|-10^-10^-10^--9^~~-------10^-10^-10^-12^~~-|
G|-------------------------------------------|
D|-------------------------------------------|
A|-------------------------------------------|
E|-------------------------------------------|

End Solo


Riff 10
Guitar 1 (Acoustic)                   x2                   
e|-------------------------------------|
B|-------------------------------------|
G|--8-----8-----8-----9-----9-----9----|
D|----7-----7-----------9-----9--------|
A|------0-----0----0------7-----7----7-|
E|-------------------------------------|

Guitar 2 (Distortion)        x2
e|----------------------------|
B|----------------------------|
G|--8----9----8----8--9-11--9-|
D|----------------------------|
A|--6----7----6----6--7--9--7-|
E|----------------------------|

Guitar 3 (Distortion, comes in the last time)
e|-----------------------------|
B|--------------------9-10--9~-|
G|-----------11---11-----------|
D|-----------------------------|
A|-----------------------------|
E|-----------------------------|


Play Riff 2
Play Riff 9

Ending:
Guitar 1
e|---------------|
B|---------------|
G|---------------|
D|-4-----2-----5-|
A|-2-----0-----3-|
E|---------------|
  
Guitar 2
e|---------------|
B|---------------|
G|-----4-----2---|
D|---4-----2---5-|
A|-2-----0-----3-|
E|---------------|



notation:
^   =  bend [ ^ = half, ^^ = whole, etc. ]
^r  =  bend and release
x   =  mute with fret-hand
*   =  mute with palm-hand
X\\ =  pick slide
h   =  hammer-on
p   =  pull-off
~   =  vibrato
t   =  tap-on
/   =  slide up
\   =  slide down
h.  =  harmonics
ah  =  artificial harmonic
(9) =  ghost note
tm  =  trem picking
tr  =  trill
Tap to rate this tab
# A B C D E F G H I J K L M N O P Q R S T U V W X Y Z