Song name
# A B C D E F G H I J K L M N O P Q R S T U V W X Y Z

Mercyful Fate - Desecration Of Souls tab

--19(db)--19-20-19-17h19p17-15h17p15-14-15-17-14-15-14-15b-14------12-14-|
-------------------------------------------------------------------------|
-------------------------------------------------------------------------|
-------------------------------------------------------------------------|
-------------------------------------------------------------------------|
-------------------------------------------------------------------------|

15p14p12----------------12------------------------------------------------|
---------15b----12-13-16--16-12h13p12-13-12-12--12-13-13-15-13----17b-17--|b
----------------------------------------------14--------------------------|
--------------------------------------------------------------------------|
--------------------------------------------------------------------------|
--------------------------------------------------------------------------|

------------17-16-17b--17-16-17----12_15-15-15-15_14-14-14-14_17-17-17_18-|
17-15-17------------------------------------------------------------------|
------------------------------------9_12-12-12-12_11-11-11-11_14-14-14_15-|
--------------------------------------------------------------------------|
--------------------------------------------------------------------------|
--------------------------------------------------------------------------|

18-18-18_17-17-17-17-20-20-20-20_18-18-18-18-18-18-18-|    ?????????
------------------------------------------------------|
15-15-15_14-14-14-14-17-17-17-17-15-15-15-15-14-14-14-|
------------------------------------------------------|
------------------------------------------------------|
------------------------------------------------------|
Tap to rate this tab
# A B C D E F G H I J K L M N O P Q R S T U V W X Y Z