Song name
# A B C D E F G H I J K L M N O P Q R S T U V W X Y Z

Mercyme - All Of Creation tab

Capo 3

This is my first tab that's more than just chords and I know it's not perfect, but it's 
really hard to hear some of the
parts of the other instrumentation, and this sounds pretty accurate, but feel free to critique.

F/G

e-1-
b-1-
g-0-
d-3-
a-3-
E-X-

The rhythm guitar just plays the chords over the instrumental
Lead Guitar:
                       INTRO
   [G]                           [G]
e----------------------------|----------------------------|
b----------------------------|----------------------------|
g---2--4--4--2--4--4--2--4---|---2--4--4--2--4--4--2--4---|
d---5--5--5--5--5--5--5--5---|---5--5--5--5--5--5--5--5---|
a----------------------------|----------------------------|
E----------------------------|----------------------------|


                       VERSE
  [G]                           [Em]
e----------------------------|----------------------------|
b----------------------------|----------------------------|
g---2--4--4--2--4--4--2--4---|---2--4--4--2--4--4--2--4---|
d---5--5--5--5--5--5--5--5---|---5--5--5--5--5--5--5--5---|
a----------------------------|----------------------------|
E----------------------------|----------------------------|

   [F/G]                        [C]
e----------------------------|----------------------------|
b----------------------------|----------------------------|
g---4--5--5--4--5--5--4--5---|---4--5--5--4--5--5--7--4---|
d---3--3--3--3--3--3--3--3---|---5--5--5--5--5--5--5--5---|
a----------------------------|----------------------------|
E----------------------------|----------------------------|

--Repeat Verse--

The chorus is just power chords.

C5           G5                  D5
And all of creation sing with me now
                                 E5     C5
lift up your voice and lay your burden down
              G5                  D5
and all of creation sing with me now
                                    C5 (power chords 8th notes, see below)
fill up the heavens let His glory resound

   C5
e----------------------------|----------------------------|
b----------------------------|----------------------------|
g---5--5--5--5--5--5--5--5---|---5--5--5--5--5--5--5--5---|
d---5--5--5--5--5--5--5--5---|---5--5--5--5--5--5--5--5---|
a---3--3--3--3--3--3--3--3---|---3--3--3--3--3--3--3--3---|
E----------------------------|----------------------------|

Repeat the VERSE for VERSE 2

The chorus this time is all 8th note power chords throughout the chorus.  On the last C5 
on the word "resound", hit 3 times then
let it ring.  This is the "Oh oh ooooooooh" part.  Between each of the "Oh oh 
ooooooooh"s, there's a little lick you can hear
in the back I think is
something like this:


e----------------------------|
b----------------------------|
g----------------------------|
d-----4/5-5--4--2------------|
a----------------------------|
E----------------------------|

The chords on the oh oh oh's are just a ringing power chord, same pattern as the verse.

Then it just kinda goes on from there repeating.  Hope this helped everyone!
Tap to rate this tab
 
# A B C D E F G H I J K L M N O P Q R S T U V W X Y Z