Song name
# A B C D E F G H I J K L M N O P Q R S T U V W X Y Z

Mercyme - I Can Only Imagine tab

Piano intro:

[-11-12------------------------------------------------]
[-------12---------12-------12--------------------10---]
[--------------8-9------8-9-------8-9---------8-9------]
[-------------------------------------11---------------]
[------------------------------------------------------]
[------------------------------------------------------]

Repeat 2x for first verse.

I can only imagine 
What it will be like 
When I walk 
By your side 

I can only imagine 
What my eyes will see 
When your face 
Is before me 
I can only imagine 

Piano Intro 1x.

[Chorus:] Piano*

*Play each chord once per quarter note

 A2 B(add4) E(add2)  E  Emaj7
[------0---------------------]
[-0----0--------0----0---0---]
[-2----x--------1----1---1---]
[-2----4--------4----2---1---]
[------6---------------------]
[----------------------------]

  A2                           B(add4) 
Surrounded by Your glory, what will my heart feel 
       E(add2)                                 E
Will I dance for you Jesus or in awe of you be still
Emaj7                                  B(add4) 
Will I stand in your presence or to my knees will I fall
        E(add2)                                    E
Will I sing hallelujah, will I be able to speak at all 
      Emaj7   A2        B(add4)
I can only imagine 

Piano Interlude:
[-11-12-------11-12-19--]
[-------12--------------]
[-----------------------]
[-----------------------]
[-----------------------]
[-----------------------]


I can only imagine 
When that day comes 
And I find myself 
Standing in the Son 

I can only imagine 
When all I will do 
Is forever 
Forever worship You 
I can only imagine

[Chorus]

Chorus Riff: Strum as you please. Listen to recording for exact timing.
[-0-0--|-0-0--|--0--|--0--]
[-0-0--|-0-0--|--0--|--0--]
[-8-9--|-8-9--|--2--|--4--]
[-9-9--|-9-9--|--2--|--4--]
[-7-7--|-7-7--|--0--|--2--]
[------|------|-----|-----]

I can only imagine [x2]

I can only imagine
When all I will do 
Is forever, forever worship you 

Tap to rate this tab
 
# A B C D E F G H I J K L M N O P Q R S T U V W X Y Z