Song name
# A B C D E F G H I J K L M N O P Q R S T U V W X Y Z

Mercyme - Move tab

VERSE

Electric 1

E|-8-----10----8---5----0-5----0-|
B|-10-x5-10-x4-10--6-x4-6-6-x4-6-|
G|-9-----9-----9---5----5-5----5-|
D|-------------------------------|
A|-------------------------------|
D|-------------------------------|

PRE-CHORUS

Electric 2

E|-----------------------------------|
B|----10---------13-----10---------9-|
G|-10------10--9-----10------10--9---|
D|-------7-----------------7---------|
A|-----------------------------------|
D|-----------------------------------|

Electric 1

E|-5-1-8--5-1-4-|
B|-6-3-10-6-3-5-|
G|-5-2-9--5-2-4-|
D|--------------|
A|--------------|
D|--------------|

CHORUS

Electric 1
(listen to song for strum pattern)
E|----------------|
B|----------------|
G|-9-5-5-7-9-10-9-|
D|-x-x-x-x-x-x--x-|
A|-7-3-3-5-7-8--7-|
D|----------------|

Electric 2

E|------------------------------------|
B|------------------------------------|
G|------------------------------------|
D|-7--------------3-----------0-2-3-5-|
A|-7-----5-5---x2-3-----3-3---0-2-3-5-|
D|-7-5-7-----5----3-3-5-----3-0-2-3-5-|

VERSE

ADD...

Electric 2
(listen to song for exact # of picks)
E|-----------------|
B|-----------------|
G|------------7----|
D|-1010101010---10-|
A|-----------------|
D|-----------------|
   * * * * *  * *

PRE-CHORUS (variation)

Electric 2

E|------------------------------------------------|
B|----10---------13--1313---13-------10---------9-|
G|-10------10--9---9-----------9--10------10--9---|
D|-------7------------------------------7---------|
A|------------------------------------------------|
D|------------------------------------------------|

Electric 1

E|-5-1-8--5-1-4-|
B|-6-3-10-6-3-5-|
G|-5-2-9--5-2-4-|
D|--------------|
A|--------------|
D|--------------|

BRIDGE

Electric 2

E|-----------------|
B|-----------------|
G|-----------------|
D|-7----3--0-2-3-5-|
A|-7----3--0-2-3-5-|
D|-7----3--0-2-3-5-|

Electric 1

(add your own solo, the one in the song is too hard to hear)

POST

Electric 2

E|-----------------------------------|
B|----10---------13-----10---------9-|
G|-10------10--9-----10------10--9---|
D|-------7-----------------7---------|
A|-----------------------------------|
D|-----------------------------------|

CHORUS
Tap to rate this tab
# A B C D E F G H I J K L M N O P Q R S T U V W X Y Z