Song name
# A B C D E F G H I J K L M N O P Q R S T U V W X Y Z

Meriwether - Paper Airplane Machine tab

STANDARD TUNING

intro/verse
E---------------------|
B------6-------6------|
G----6---6---6---6----|
D--6-------4----------|
A---------------------|
E---------------------|

pre chorus
E--------------------------------------------------------|
B--------------------------------------------------------|
G--------------------------------------------------------|
D--66666666--88888888--44444444--11-11-11-11-11-11-11-11-|
A--66666666--88888888--44444444--11-11-11-11-11-11-11-11-|
E--44444444--66666666--22222222--9--9--9--9--8--8--8--8--|
pm ........  ........  ........  .  .  .  .  .  .  .  .

E------------------------------------------|
B------------------------------------------|
G------------------------------------------|
D----66666666--88888888--4444444444444444--|
A----66666666--88888888--4444444444444444--|
E----44444444--66666666--2222222222222222--|
pm   ........  ........  ................

then,
E---------------------------------|
B---------------------------------|
G---------------------------------|
D--6666--8888-88--4444--8888--66--|X2
A--6666--8888-88--4444--8888--66--|
E--4444--6666-66--2222--6666--44--|

chorus
E--------------------------------------------|
B--------------------------------------------|
G--------------------------------------------|
D--66666666--88888888--44444444--8888--6666--|x4
A--66666666--88888888--44444444--8888--6666--|
E--44444444--66666666--22222222--6666--4444--|

E------------------------------------|
B------------------------------------|
G------------------------------------|
D--44--66--88--88-66-44--66-8~---4~--|
A--44--66--88--88-66-44--66-8~---4~--|
E--22--44--66--66-44-22--44-6~---2~--|

verse, pre chorus, and chorus again.


i'm tired, i'll probably post the rest later

comment and rate plz
Tap to rate this tab
# A B C D E F G H I J K L M N O P Q R S T U V W X Y Z